Carnifex

Sorrowspell

Carnifex

tabs

by  ALEFFEDERICO

save to print version add songbook text version e-mail correct tuner
chordsukulelecavacokeyboardtabbassdrumsharmonicaflute Guitar Pro
close

there isn't a video lesson for this song

chords

Sorrowspell

	  		

Riff 1a (4/4) 
e|----------------|----------------|----------------|----------------| 
B|----------------|----------------|----------------|----------------| 
G|----------------|----------------|----------------|----------------| 
D|----------------|----------------|----------------|----------------| 
A|----------------|----------------|----------------|3---------------| 
E|----4---3-------|----------------|----4---3---4---|----5---3-------| 
A|2-2---2---2-4-2-|3-2-2-2-4-2-3h4-|2-2---2---2---2-|--2---2---2-3h5-| 
  - -   -   -   -    -   -   -      - -   -   -   -    -   -   - 

Riff 1b 
e|----------------|----------------|----------------|----------------| 
B|----------------|----------------|----------------|----------------| 
G|----------------|----------------|----------------|----------------| 
D|----------------|----------------|----------------|----------------| 
E|----------------|----------------|------------3---|----------------| 
A|----4---3-------|----------------|----4---3-------|5---3-----------| 
E|2-2---2---2-4-2-|3-2-2-2-5-2-3h5-|2-2---2---2---2-|--2---2-5-2-3h5-| 
  - -   -   -   -    -   -   -      - -   -   -   -    -   -   - 

Riff 2 (3/4) 
e|------------|------------|------------|------------| 
B|------------|------------|------------|------------| 
G|------------|------------|------------|------------| 
D|------------|------------|------------|------------| 
E|4-----------|4-----------|6-----------|7-----------| 
A|1-------0-0-|1-------0-0-|3-------0-0-|4-------0-0-| 
E|1-------0-0-|1-------0-0-|3-------0-0-|4-------0-0-| 
          - -          - -          - -          - - 

Riff 3a 
e|------------|------------|------------|--------------| 
B|------------|------------|------------|--------------| 
G|------------|------------|------------|--------------| 
D|------------|------------|------------|--------------| 
A|------------|------------|------------|--------------| 
E|5-----5-----|5-----8-----|7-----7-----|10-----10-8-7-| 
A|--0-0---0-0-|--0-0---0-0-|--0-0---0-0-|---0-0--------| 
    - -   - -    - -   - -    - -   - -     - -            

e|------------|------------|------------|-------------| 
B|------------|------------|------------|-------------| 
G|------------|------------|------------|-------------| 
D|------------|------------|------------|-------------| 
A|------------|------------|------------|-------------| 
E|5-----5-----|5-----5-----|7-----7-----|10-8-7-5-7-8-| 
A|--8-8---8-8-|--8-8---8-8-|--8-8---8-8-|-------------| 
    - -   - -   - -   - -   - -   - - 



Riff 3b 
e|------------|------------|------------|--------------|  
B|------------|------------|------------|--------------|  
G|------------|------------|------------|--------------|  
D|------------|------------|------------|--------------|  
A|------------|------------|------------|-------10-8-7-|  
E|5-----5-----|5-----8-----|7-----7-----|10-8-7--------|  
A|--0-0---0-0-|--0-0---0-0-|--0-0---0-0-|--------------|  
    - -   - -   - -   - -   - -   - -                       

e|------------|------------|-------------|-------------| 
B|------------|------------|-------------|-------------| 
G|------------|------------|-------------|-------------| 
D|------------|------------|-------------|-------------| 
A|------------|------------|-------------|-------------| 
E|------------|------------|-------------|-------------| 
A|5-5-5-5-5-5-|5-5-5-8-8-8-|7-7-7-10-7-7-|8-7-7-7-8-10-| 
  - -   - -    - -   - -    - -    - -    - -     


Riff 4a 
e|------------|------------|------------|--------------| 
B|------------|------------|------------|--------------| 
G|------------|------------|------------|--------------| 
D|------------|------------|------------|--------------| 
A|------------|------------|------------|--------------| 
E|5-----5-----|5-----5-----|7-----7-----|10-----10-----| 
A|--8-8---8-8-|--8-8---8-8-|--8-8---8-8-|---8-8----8-8-| 
   - -   - -    - -   - -    - -   - -     - -    - -     


e|------------|------------|------------|--------------| 
B|------------|------------|------------|--------------| 
G|------------|------------|------------|--------------| 
D|------------|------------|------------|--------------| 
A|8-----8-----|8-----8-----|7-----7-----|10------------| 
E|------------|------------|------------|-------10-----| 
A|--7-7---7-7-|--7-7---7-7-|--8-8---8-8-|---8-8----8-8-| 
    - -   - -    - -   - -    - -   - -     - -    - - 


Riff 4b 
e|------------|------------|-------------|------------| 
B|------------|------------|-------------|------------| 
G|------------|------------|-------------|------------| 
D|------------|------------|-------------|------------| 
A|------------|------------|-------------|------------| 
E|5-----5-----|5-----5-----|10-----8-----|7-----7-----| 
A|--8-8---8-8-|--8-8---8-8-|---7-7---7-7-|--7-7---7-7-| 
    - -   - -    - -   - -     - -   - -    - -   - -   


e|------------|-------------|------------|--------------| 
B|------------|-------------|------------|--------------|  
G|------------|-------------|------------|--------------| 
D|------------|-------------|------------|--------------| 
A|8-----8-----|8-----10-----|7-----7-----|--------------| 
E|------------|-------------|------------|10-8-7--------| 
A|--7-7---7-7-|--7-7----7-7-|--8-8---8-8-|-------10-8-7-| 
    - -   - -    - -    - -    - -   - -   - - - -- - -  


Riff 5 (4/4) 
E|----------------|----------------|----------------|----------------| 
B|----------------|----------------|----------------|----------------| 
G|----------------|----------------|----------------|----------------| 
D|----------------|----------------|----------------|----------------| 
A|----------------|6-------5-------|----------------|33333333--------| 
E|0----1-----0----|3-------2-------|4444444455555555|--------44444444| 
A|0----1-----0----|3-------2-------|----------------|----------------| 
  -    -     -                         


e|----------------|----------------|----------------|----------------| 
B|----------------|----------------|----------------|----------------| 
G|----------------|----------------|----------------|----------------| 
D|----------------|----------------|----------------|----------------| 
A|----------------|6-------5-------|----------------|--------3---4---| 
E|0----1-----0----|3-------2-------|0---1---3---4---|0---2---1---2---| 
A|0----1-----0----|3-------2-------|0---1---3---4---|0---2-----------| 
  -    -     -                     -   -   -   -    -   - 

Riff 5 trem harmony 
e|----------------|----------------| 
B|----------------|----------------| 
G|----------------|----------------| 
D|----------------|----------------| 
A|----------------|66666666--------| 
E|7777777788888888|--------77777777| 
A|----------------|----------------| 




Riff E Guitar 1 ALL TREMMED FOR THIS GUITAR 
e|-----------|-----------|--------------| 
B|-----------|-----------|--------------| 
G|-----------|-----------|--------------| 
D|-----------|-----------|--------------| 
A|-----------|-----------|--------------| 
E|-----------|-----------|--------------| 
A|7--7--10-9-|7--7--10-9-|6--6--9-6-9-6-| 


e|-----------|-----------|----------|----------|----------|----------| 
B|-----------|-----------|----------|----------|----------|----------| 
G|-----------|-----------|----------|----------|----------|----------| 
D|-----------|-----------|----------|----------|----------|----------| 
A|-----------|-----------|----------|----------|----------|----------| 
E|-----------|-----------|----------|----------|----------|----------| 
A|7--7--10-9-|7--7--10-9-|4--4--7-6-|4--4--7-6-|2--2--5-4-|2--2--5-4-| 



Riff E Guitar 2 Ryan's lead 
e|------------|---------------|--------------| 
B|------------|---------------|--------------| 
G|------12----|------12-11----|------11------| 
D|----16--16--|----16-----15--|----15--15----| 
A|--14------14|--14---------13|--13------13--| 
E|12----------|12-------------|11----------11| 
A|------------|---------------|--------------| 


e|------------|------------|----------|----------|--------|--------| 
B|------------|------------|----------|----------|--------|--------| 
G|------12----|------12----|-----9----|-----9----|----7---|----7---| 
D|----16--16--|----16--16--|---13-13--|---13-13--|--11-11-|--11-11-| 
A|--14------14|--14------14|-11-----11|-11-----11|-9-----9|-9-----9| 
E|12----------|12----------|9---------|9---------|7-------|7-------| 
A|------------|------------|----------|----------|--------|--------| 



Then you play riff B again the same amount of times 

then... 

Riff F Guitar 1(part 1) 
e|------------|------------|-------------|------------| 
B|------------|------------|-------------|------------| 
G|------------|------------|-------------|------------| 
D|------------|------------|-------------|------------| 
A|------------|------------|-------------|------------| 
E|555555555555|111111111111|4444444444444|1---0---1---| 
A|------------|------------|-------------|1---0---1---| 



Riff F Guitar 1(part 2) 
e|------------|------------|-------------|------------| 
B|------------|------------|-------------|------------| 
G|------------|------------|-------------|------------| 
D|------------|------------|-------------|------------| 
A|------------|333333333333|-------------|------0h2h3-| 
E|555555555555|------------|4444444444444|0h2h4-------| 
A|------------|------------|-------------|------------| 


P.M.                                      -   -   - 

Guitar 2 plays the same thing until the hammer on walk at the end of the riff. 
I will start the next guitar's bar at the hammer on walk. 

Riff F Guitar 2(part 1) 
e|------------|------------|------------|------------|------------| 
B|------------|------------|------------|------------|------------| 
G|------------|------------|------------|------------|------------| 
D|------------|------------|------------|------------|------------| 
A|------0h5h6-|------------|------------|------------|------------| 
E|0h5h7-------|888888888888|444444444444|777777777777|1---0---1---| 
A|------------|------------|------------|------------|1---0---1---| 
P.M.                                                  -   -   - 


e|------------|------------|------------|------------| 
B|------------|------------|------------|------------| 
G|------------|------------|------------|------------| 
D|------------|------------|------------|------------| 
A|------------|666666666666|------------|------0h5h6-| 
E|888888888888|------------|777777777777|0h5h7---0---| 
A|------------|------------|------------|------------| 

Then you go back to Riff C 1(a and b) and Riff 2 (a and b) 

Then the break down is all on the 1st fret, and the diminished  
part also on the first fret, 1 open 1 diminished. 

Then... 

Riff G Part 1(4/4) 
e|----------------|----------------|----------------|----------------| 
B|----------------|----------------|----------------|----------------| 
G|----------------|----------------|----------------|----------------| 
D|----------------|----------------|----------------|----------------| 
A|0-----------6---|--------0-------|----9-----------|----------------| 
E|0-------0---3---|----0---0-------|0---6-----------|----------------| 
A|0-------0---3---|----0---0-------|0---6-----------|0000----0000----| 
P.M.      -            -            -                ----    ----      


Riff G Part 2(4/4) 
e|----------------|----------------|----------------|----------------| 
B|----------------|----------------|----------------|----------------| 
G|----------------|----------------|----------------|----------------| 
D|----------------|----------------|----------------|----------------| 
A|0-----------6---|--------0-------|----4-----------|----------------| 
E|0-------0---3---|----0---0-------|0---1-----------|0---1---3---4---| 
A|0-------0---3---|----0---0-------|0---1-----------|0---1---3---4---| 
P.M.      -            -            -                -   -   -   -     



Riff H (guitar 1 plays this all 4x) 
E------------------------------------------------------| 
B------------------------------------------------------| 
G------------------------------------------------------| 
D------------------------------------------------------| 
A-------7--5---------------------8--7--5-----7-----11--| 
E----5--------8--4--8--10--7---------------------------| 
A-----------------------------5-----------4-----7------| 
All tremmed 

Guitar 2 riff H (played the last 2x for riff H) 
e|------------|------------|------------|--------------| 
B|------------|------------|------------|--------------| 
G|------------|------------|------------|--------------| 
D|7-----------|6-----------|3-----------|10-----9------| 
A|------------|------------|------------|--------------| 
E|5-----------|4-----------|1-----------|8------7------| 
A|------------|------------|------------|--------------|  
		  

Full key step upFull key step up
Half key step upHalf key step up
Half key step downHalf key step down
Full key step downFull key step down
hide glossary

See also:

tabs Metallica - Nothing Else Matters tabs Metallica - For Whom The Bell Tolls tabs Megadeth - Holy Wars...The Punishment Due tabs Metallica - One tabs Metallica - Low Man's Lyric tabs Metallica - Orion
e-chords

Other versions:

tabs Carnifex - Sorrowspell
auto scroll beats size up size down change color hide chords drawings
tab show chords e-chords YouTube Clip e-chords hide all tabs e-chords go to top tab

share