Carnifex

Life Fades To A Funeral

Carnifex

tabs

by  ALYSLIMA

save to print version add songbook text version e-mail correct tuner
chordsukulelecavacokeyboardtabbassdrumsharmonicaflute Guitar Pro
close

there isn't a video lesson for this song

chords

Life Fades To A Funeral

	  		
Intro 

0:00 - 0:48 

e|-------------------------------------------------------------| 
B|-------------------------------------------------------4-----| 
G|--(0)-1----1----1-------3-5-3-----0-1--0-1--0-1-------3-3----|    
D|----3--3-3--3-3--3-----5-----5---1-1-1--1-1--1-1-----5---5---| 
A|-----3----3----3--3---3-------3-------3----3----3---3-----3--| 
E|---1----1----1-------4-----------------------------4---------|(x4) 


Guitar 1 

(0:52 - 1:56) 

e|--------------------| 
B|--------------------| 
G|-------------5------|  
D|-3-----6------6\5---| 
A|-3-X16-3-X12-----6--| 
E|-1-----4------------|(x16) 


Guitar 2  

(0:53 - 1:56) 

e|----------------------------------------------------------------------------------| 
B|----------------------------------------------------------------------------------| 
G|-------------------------------------10-10/12--------------------------8-6-5b6r5--| 
D|-/8-10-8-6-5-5--/10-/8-6-5-6-5---/10---------10-10\8--/10-6--/6-----5-6---------6-| 
A|-------------------------------6-------------------------------6-6/8--------------| 
E|----------------------------------------------------------------------------------| 

e|-11------13-----15---------------------------8--------------| 
B|---12r11----------------------11------9-------------8-----9-| 
G|-----------11r10---------10-12----8-10----------------------| 
D|-----------------------------------------8-10---8-10--8-10--| 
A|------------------16r15-------------------------------------| 
E|------------------------------------------------------------| 

e|-----8---------------------8---------------------8---------------------8------------------------| 
B|----------8----9----------------8----9----------------8----9----------------8----9--------------| 
G|--------------------10--------------------8---------------------10--------------------8-----10--|      
D|-8-10-8-10-8-10-8-10---8-10-8-10-8-10-8-10---8-10-8-10-8-10-8-10---8-10-8-10-8-10-8-10--8-10----| 
A|------------------------------------------------------------------------------------------------| 
E|------------------------------------------------------------------------------------------------| 



************************************ 

| n   Note :D 
|(n)  Ghost note 
| b   Bend 
| r   Release 
| /   Slide up 
| \   Slide down 

************************************ 
		  

See also:

tabs Metallica - Nothing Else Matters tabs Metallica - For Whom The Bell Tolls tabs Megadeth - Holy Wars...The Punishment Due tabs Metallica - One tabs Metallica - Low Man's Lyric tabs Metallica - Orion
e-chords

Other versions:

tabs Carnifex - Life Fades To A Funeral
auto scroll beats size up size down change color hide chords drawings
tab show chords e-chords YouTube Clip e-chords hide all tabs e-chords go to top tab

share