Carlos Santana

Bahia

Carlos Santana

tabs

by  VICTBORGES

save to print version add songbook text version e-mail correct tuner
chordsukulelecavacokeyboardtabbassdrumsharmonicaflute Guitar Pro
close

there isn't a video lesson for this song

chords

Bahia

	  		

(Instrumental) 


-------------------------------------------- 
SECTION 1 
********** 
e|----------------|--------------| 
B|----------------|--------------| 
G|----------------|--------------| 
D|-----7----7-7---|-----7------7-| 
A|---7----7-----7-|---7----7-7---| 
E|-5--------------|-5------------|X4 


-------------------------------------------- 
00:19 
SECTION 2 
********** 
  GUITAR 1 
e|-------|----|-------|-------|----------------| 
B|-------|----|-------|-------|----------------| 
G|-------|----|-------|-------|----------------| 
D|-5-6-7-|----|-------|-5-6-7-|----------------| 
A|-------|----|-5-6-7-|-------|---------5-6-7--| 
E|-------|----|-------|-------|----------------| 
 |                                             | 
 |GUITAR 2 UB                   UB             | 
e|-------|----|---------------|-12-15--b-------| 
B|-------|-10-|---------------|-15----15-15-13-| 
G|-------|-12-|---------------|----------------| 
D|-------|----|---------------|----------------| 
A|-------|----|---------------|----------------| 
E|-------|----|---------------|----------------| 


-------------------------------------------- 
00:28 
SECTION 3 
********** 
e|-------------------------------------| 
B|-------------------------------------| 
G|-------------------------------------| 
D|-----7-5-7---------7-----------------| 
A|---7-------7---7-7---5-3-5-3-5-3-5-3-| 
E|-5-----------5-----------------------| 


-------------------------------------------- 
00:46 
SMALL SOLO 
*********** 
e|---s-----|---s-----|---s------|---s------s--s--------| 
B|-5-\10-7-|-7-\12-8-|-8-\13-10-|-10\12--10\12/10--8-6-| 
G|---------|---------|----------|----------------------| 
D|---------|---------|----------|----------------------| 
A|---------|---------|----------|----------------------| 
E|---------|---------|----------|----------------------| 

00:55                        Trill........ 
e|---s-----|---s-----|---s-----h--p--h--p---|---s------s--s------------| 
B|-5-\10-7-|-7-\12-8-|-8-\13-10-13-10-13-10-|-10\12--10\12/10--8-6--s--| 
G|---------|---------|----------------------|----------------------7\9-| 
D|---------|---------|----------------------|--------------------------| 
A|---------|---------|----------------------|--------------------------| 
E|---------|---------|----------------------|--------------------------| 


-------------------------------------------- 
01:08 
SECTION 1 
********** 
e|----------------|--------------| 
B|----------------|--------------| 
G|----------------|--------------| 
D|-----7----7-7---|-----7------7-| 
A|---7----7-----7-|---7----7-7---| 
E|-5--------------|-5------------|X2 


-------------------------------------------- 
01:17 
SECTION 2 
********** 
  GUITAR 1 
e|-------|----|-------|-------|------------------------| 
B|-------|----|-------|-------|------------------------| 
G|-------|----|-------|-------|------------------------| 
D|-5-6-7-|----|-------|-5-6-7-|------------------------| 
A|-------|----|-5-6-7-|-------|---------5-6-7----------| 
E|-------|----|-------|-------|------------------------| 
 |                                                     | 
 |GUITAR 2 UB                   UB                     | 
e|-------|----|---------------|------------------------| 
B|-------|-10-|---------------|-10---------------------| 
G|-------|-12-|---------------|-12--12---s---------h---| 
D|-------|----|---------------|--------12\14-12-10--12-| 
A|-------|----|---------------|------------------------| 
E|-------|----|---------------|------------------------| 


e|-------|-------|-------|-------|-------| 
B|-------|-------|-------|-------|-------| 
G|-------|-------|-------|-------|-------| 
D|-5-6-7-|-------|-5-6-7-|-------|-5-6-7-| 
A|-------|-5-6-7-|-------|-5-6-7-|-------| 
E|-------|-------|-------|-------|-------| 




ENJOY....... 
		  

See also:

tabs Azul Violeta - Tu Luz tabs Luzbel - Hijos Del Metal tabs En Espiritu Y En Verdad - Sólo Dios Puede Salvar tabs Azul Violeta - Go Billy Go tabs Armando Palomas - Acidez Brutal tabs Carlos Santana - Flor de luna--moonflower
e-chords

Other versions:

tabs Charlie Brown Jr. - Bahia tabs Carlos Santana - Bahia
auto scroll beats size up size down change color hide chords drawings
tab show chords e-chords YouTube Clip e-chords hide all tabs e-chords go to top tab

share