Carlos Santana

All that i am

Carlos Santana

tabs

by  PLOPP

save to print version add songbook text version e-mail correct tuner
chordsukulelecavacokeyboardtabbassdrumsharmonicaflute Guitar Pro
close

there isn't a video lesson for this song

chords

All that i am

	  		Guitar intro before vocals 

T=Tapping 
B=Bend 
S=Slide 
          T  T                                                      T T 
E|-14---13-14-13---6------8---6------------------------------------------ 
B|--------------------8----------------4---6---8---6---8---6---4---4-6-4- 
G|---------------------------------5------------------------------------- 
D|----------------------------------------------------------------------- 
A|----------------------------------------------------------------------- 
E|----------------------------------------------------------------------- 


    S  T  T      T  T      T  T      T  T                  B 
E|-6-14-11-14--14-11-14--14-11-14--14-11-14--16---18--16--18------------- 
B|----------------------------------------------------------------------- 
G|----------------------------------------------------------------------- 
D|----------------------------------------------------------------------- 
A|----------------------------------------------------------------------- 
E|----------------------------------------------------------------------- 


Enjoy //Dawe. 

		  

Full key step upFull key step up
Half key step upHalf key step up
Half key step downHalf key step down
Full key step downFull key step down
hide glossary

See also:

tabs Azul Violeta - Tu Luz tabs Luzbel - Hijos Del Metal tabs En Espiritu Y En Verdad - Sólo Dios Puede Salvar tabs Azul Violeta - Go Billy Go tabs Armando Palomas - Acidez Brutal tabs Carlos Santana - Flor de luna--moonflower
e-chords

Other versions:

tabs Carlos Santana - All that i am
auto scroll beats size up size down change color hide chords drawings
tab show chords e-chords YouTube Clip e-chords hide all tabs e-chords go to top tab

share