Caravan

Love To Love You And Tonight Pigs Will Fly Tab

Caravan

Difficulty: nolevelnolevel

by terr%5Fschmitz

tuner correct add songbook print version text version save to e-mail
chordsukulelecavacokeyboardtabbassdrumsharmonicsflute Guitar Pro
close

there isn't a video lesson for this song

request
chords

Love To Love You And Tonight Pigs Will Fly

  		Intro 
G|------------|----------| x4 
D|--------2-2-|-4----4---| 
A|-2--2-------|----------| 
E|------------|---2----2-| 

verse 1 
G|------------|----------| x4 
D|--------2-2-|-4----4---| 
A|-2--2-------|----------| 
E|------------|---2----2-| 

Pre-Chorus 
G|-1--1--1-----|-----------|-------------|----------| 
D|---------4-2-|-4-2--1----|-2--2--2-1---|----------| 
A|-------------|--------4-4|-----------4-|------1---| 
E|-------------|-----------|-------------|-2-4-----2| 

Chorus 
G|------------|----------|------------|----------| 
D|--------2-2-|-4----4---|--------2-2-|-4------4-| 
A|-2--2-------|----------|-2--2-------|----------| 
E|------------|---2----2-|------------|---2--2---| 

G|------------|----------|------------|-------------| 
D|--------2-2-|-4------4-|--------2-2-|-4------4--4-| 
A|-2--2-------|----------|-2--2-------|-------------| 
E|------------|---2--2---|------------|---2--2------| 

Interlude 
G|-------------|--------------|------------------|---------------| 
D|-------------|--------------|------------------|---------------| 
A|-------------|--------------|------------------|------------1--| 
E|-2-------(x-x|-2)-------(x-x|-2)----(2-2)----(2|-2)--2--2-4---2| 

G|------------|----------|------------|-----------------| 
D|--------2-2-|-4------4-|--------2-2-|-4-------4---4)--| 
A|-2--2-------|----------|-2--2-------|-----------------| 
E|------------|---2--2---|------------|---2--(2---2----2| 

verse 2 
G|------------|----------| x4 
D|--------2-2-|-4------4-| 
A|-2--2-------|----------| 
E|------------|---2--2---| 

Pre-Chorus 
G|-1--1--1-----|-----------|-------------|----------| 
D|---------4-2-|-4-2--1----|-2--2--2-1---|----------| 
A|-------------|--------4-4|-----------4-|------1---| 
E|-------------|-----------|-------------|-2-4-----2| 

Chorus 
G|------------|----------|------------|----------| 
D|--------2-2-|-4------4-|--------2-2-|-4------4-| 
A|-2--2-------|----------|-2--2-------|----------| 
E|------------|---2--2---|------------|---2--2---| 

G|------------|----------|------------|-------------| 
D|--------2-2-|-4------4-|--------2-2-|-4------4--4-| 
A|-2--2-------|----------|-2--2-------|-------------| 
E|------------|---2--2---|------------|---2--2------| 

Interlude 
G|-------------|--------------|--------------------|---------------| 
D|-------------|--------------|--------------------|---------------| 
A|-------------|--------------|--------------------|------------1--| 
E|-2-------(x-x|-2)-------(x-x|-2)---(x-x-2)---(x-x|-2)--2--2-4---2| 

Chorus 
G|------------|----------|------------|----------| x3 
D|--------2-2-|-4------4-|--------2-2-|-4------4-| 
A|-2--2-------|----------|-2--2-------|----------| 
E|------------|---2--2---|------------|---2--2---| 

G|------------|----------|------------|-----------| 
D|--------2-2-|-4------4-|--------2-2-|-4------4--| 
A|-2--2-------|----------|-2--2-------|----------4| 
E|------------|---2--2---|------------|---2--2----| 

Outro 
G|------------|----------|------------|-----------| x2 
D|--------2-2-|-4------4-|--------2-2-|-4------4--| 
A|-2--2-------|----------|-2--2-------|----------4| 
E|------------|---2--2---|------------|---2--2----| 

G|------------|----------|------------|-----------| 
D|--------2-2-|-4------4-|--------2-2-|-4------4-4| 
A|-2--2-------|----------|-2--2-------|-----------| 
E|------------|---2--2---|------------|---2--2----| 

G|------------|-----------|------------|-----------| 
D|--------2-2-|-4------4-4|--------2-2-|-4------4--| 
A|-2--2-------|-----------|-2--2-------|------4---4| 
E|------------|---2--2----|------------|---2-------| 

G|------------|----------|------------|-----------| 
D|------------|------4---|--------2-2-|-4------4--| 
A|-2--2-------|---4----4-|-2--2-------|------4---4| 
E|--------0-0-|-2--------|------------|---2-------| 

G|------------|----------|------------|-----------| fade out 
D|--------2-2-|-4------4-|--------2-2-|-4------4--| 
A|-2--2-------|----------|-2--2-------|------4---4| 
E|------------|---2--2---|------------|---2-------| 


******************************* 

| x Dead Note 
| (n-n) Fast 

******************************* 
	  

Search Paypal
auto scroll beats size up size down change color hide chords drawings
tab show chords e-chords YouTube Clip e-chords hide all tabs e-chords go to top tab

share with facebook