Camarones Orquestra Guitarrística

Cabron (camarones) Tab

Camarones Orquestra Guitarrística

Difficulty: nolevelnolevel

by Ywman

tuner correct add songbook print version text version save to e-mail
chordsukulelecavacokeyboardtabbassdrumsharmonicsflute Guitar Pro
close

there isn't a video lesson for this song

chords

Cabron (camarones)

(Camarones Orquestra Guitarrística)

  		Ordem na música: 
Parte 1 
Parte 2 
Parte 3 
Parte 2 
Parte 3 
Parte 1 
Parte 2 (Várias Vezes) 


Parte 1  
Base: 
C B C B Am G F#m B (2x) 

Parte 2  
Base: 
Em Am Bm (2x) 

Parte 3 
Base: 
Em Am Am/G# Am/G Am/F# (2x) 
Riff da Parte 3: 
(Pt. 1) 
    Em 
e|-------------------------------------------------------------| 
b|--7-7-8--7--8--7--8--7--8--7-----7-7-8--7--8--7--8--7--8--7--| 
g|-----------------------------9------------------------------9| 
d|-------------------------------9-----------------------------| 
a|-------------------------------------------------------------| 
e|-------------------------------------------------------------| 

(Pt. 2) 
                  Am   Am/G# Am/G  Am/F# 
e|-------------7-8---7-8---7-8---7-8---| 
b|----7-8-8h10----10-----9-----8-----7-| 
g|--9----------------------------------| 
d|-------------------------------------| 
a|-------------------------------------| 
e|-------------------------------------| 
	  

Full key step upFull key step up
Half key step upHalf key step up
Half key step downHalf key step down
Full key step downFull key step down
auto scroll beats size up size down change color hide chords drawings
tab show chords e-chords YouTube Clip e-chords hide all tabs e-chords go to top tab

share with facebook

Search Paypal