Callejeros

home > Callejeros

seria una pena Tab

Callejeros

Difficulty: nolevelnolevel

by antoniades

tuner correct add songbook print version text version save to e-mail
chordsukulelecavacokeyboardtabbassdrumsharmonicsflute Guitar Pro
chords

seria una pena

  		 
Solo 
 
e|-----------------------------------------------------------------------------------------| 
B|---------------8~---------------------------------------8-6------------------------------| 
G|--8~-/12-(*)-8----10-10-10-10-8-10-10h12p10-8~--7-7-7-7-----8p7h8~--7-7-7-7-5------------| 
D|------------------------------------------------------------------------------8-6-5~-----| 
A|-----------------------------------------------------------------------------------------| 
E|-----------------------------------------------------------------------------------------| 
 
e|-----------------------------------------------------------------------------------------| 
B|-----------------------------------------------------------------------------------------| 
G|-----------------------------------------------------------------------------------------| 
D|--------------------------5----------8-6-6/10-8~-6-8-10-8-6-6-8-10-12-10-8-8-10-12-10-10~| 
A|-3/5-5-3-5-6-3~-------5-6---8-6p5h6~-----------------------------------------------------| 
E|----------------6-6-8--------------------------------------------------------------------| 
 
e|-----------------------------------------------------------------------------------------| 
B|---------------------------------------------19-19-19-19-19-20-20-20-20-21-21-21-21~-----| 
G|--8-8-12-10-7-8~-8/10\8/12~---15-15-15-15-15---------------------------------------------| 
D|-----------------------------------------------------------------------------------------| 
A|-----------------------------------------------------------------------------------------| 
E|-----------------------------------------------------------------------------------------| 
 
 
 (*) Otra guitarra hace 
 
e|--------------| 
B|--------------| 
G|--------------| 
D|-------3-5~---| 
A|-3-5-6--------| 
E|--------------| 
 

	  

Search Paypal
auto scroll beats size up size down change color hide chords drawings
tab show chords e-chords YouTube Clip e-chords hide all tabs e-chords go to top tab