Callejeros

home > Callejeros

A tinto regalado Tab

Callejeros

Difficulty: nolevelnolevel

by antoniades

tuner correct add songbook print version text version save to e-mail
chordsukulelecavacokeyboardtabbassdrumsharmonicsflute Guitar Pro
chords

A tinto regalado

  		 
Intro 
G|--------------|----| 
D|--------------|----| 
A|--3--3--3--3--|-3--| 
E|--------------|----| 
 
PRE VERSE 
G|---------------------------| (x4) 
D|--------1-----1--------1---| 
A|-1-2h3-----3------3------3-| 
E|---------------------------| 
 
VERSE 1        1 
G|---------------------------| (x4) 
D|--------1-----1------------| 
A|-1-2h3-----3---------------| 
E|---------------------------| 
               2             {______3_______}(Riff 3 x times) 
G|---------------------------|-------------| 
D|--------1-----1--------1---|-----1-----1-| 
A|-1-2h3-----3------3------3-|--3-----3----| 
E|---------------------------|-------------| 
               4 
G|-----------------------| 
D|-----------------------| (x4) 
A|--------1-----1--------| 
E|-1-2h3-----3------3/13-| 
 
Chorus (x2) 
 
G|---------------------------| (x2) 
D|--------1-----1--------1---| 
A|-1-2h3-----3------3------3-| 
E|---------------------------| 
 
G|-----------------------| 
D|-----------------------| 
A|--------1-----1--------| 
E|-1-2h3-----3------3/13-| 
 
G|---------------------------| 
D|--------1-----1--------1---| 
A|-1-2h3-----3------3------3-| 
E|---------------------------| 
 
Bridge 
G|---------------------------| (x6) 
D|--------1-----1--------1---| 
A|-1-2h3-----3------3------3-| 
E|---------------------------| 
 
Verse 2 
G|--------|(x4) 
D|--------| 
A|--------| 
E|---13/0-| 
               2             {______3_______}(Riff 3 x times) 
G|---------------------------|-------------| 
D|--------1-----1--------1---|-----1-----1-| 
A|-1-2h3-----3------3------3-|--3-----3----| 
E|---------------------------|-------------| 
 
G|-----------------------| 
D|-----------------------| 
A|--------1-----1--------| 
E|-1-2h3-----3------3/13-| 
 
Chorus 2 (Same as Chorus 1) 
 
No Bass on Third Verse 
 
Play Chorus X4 
 
Outro Follow Notes on song 
 

	  

Search Paypal
auto scroll beats size up size down change color hide chords drawings
tab show chords e-chords YouTube Clip e-chords hide all tabs e-chords go to top tab