Caifanes

De Noche Todos Los Gatos Son Pardos

Caifanes

tabs

by  CHRISARAIVA

save to print version add songbook text version e-mail correct tuner
chordsukulelecavacokeyboardtabbassdrumsharmonicaflute Guitar Pro
close

there isn't a video lesson for this song

chords

De Noche Todos Los Gatos Son Pardos

(Saul Hernández)

	  		esto es lo que toca el maestro Sabo Romo en  
el disco 1 de bajo el azul de tu misterio 
en vivo lo que tocan al final de la canción 
oigan bien el disco y le agarrarán el ritmo. 

  varias veces        variación 
                     
g----------------*------------- 
d----------------*------------- 
a----------------*------------- 
e--0 00  2 22/4--*--22 44 66 88  

    solo 

g------------------------------------------------------ 
d--7/10 9 7--------7/9----10 9 7------------7---------- 
a-7---------10 9 7------7---------10 9 7  9----9 7 9--- 
e------------------------------------------------------ 
2 veces                                         2 veces 
g----------------*-----------------------------*------------* 
d------7 9 7-----*-----7 9 7 9-/10 9 7---------*------------* 
a-7 9---------9--*-7 9----------------- 10 9 7-*----7 9 7 --* 
e----------------*-----------------------------*-7 9-------9* 

                                   hasta acabar la canción 
g-------------------------------*--------------------------- 
d-----7 9 7 9--10 9 7-----------*--------------------6------ 
a-7 9 -----------------10 9 7 --*---5 777 5 777 5 777--7---- 
e-----------------------------0-*---------------------------
		  

See also:

tabs Enrique Bunbury - Contracorriente tabs Heroes del silencio - Medicina Húmeda tabs A Palo Seko - La Ruta Del Bakalao tabs Caifanes - Amanece tabs Heroes del silencio - Agosto tabs Heroes del silencio - Iberia Sumergida
e-chords

Other versions:

tabs Caifanes - De Noche Todos Los Gatos Son Pardos
auto scroll beats size up size down change color hide chords drawings
tab show chords e-chords YouTube Clip e-chords hide all tabs e-chords go to top tab

share