Cage The Elephant

Free Love

Cage The Elephant

tabs Expert expert

by  DEIVCAVALCANTI

save to print version add songbook text version e-mail correct tuner
chordsukulelecavacokeyboardtabbassdrumsharmonicaflute Guitar Pro
close

there isn't a video lesson for this song

chords

Free Love

	  		

Intro: 
                        (Strum A Lot) 
e|------------------------------------------|  
B|------------------------------------------| 
G|-12---9--9--12----------13-14-15-16-15b---| 
D|-12~--11-11-12-x3-------x--x--x--x--x-----| 
A|-10---11-11-10----------11-12-13-14-17b---| 
E|------------------------------------------| 
Verse: 
Those are 11s not 1s 
e|------------------------------------------|  
B|------------------------------------------| 
G|-12----11-12-----11-12----12121212121212--| 
D|-12~---11-12-x1--11-12-x3-12121212121212--| 
A|-10----99-10-----99-10----10101010101010--| 
E|------------------------------------------| 

Chorus: 
e|------------------|  
B|------------------| 
G|-13-14-15-16------| 
D|-x--x--x--x-------| 
A|-11-12-13-14------| 
E|------------------| 

Bridge: 
Pick a lot 
e|------------------|  
B|------------------| 
G|-12-13-14-15-16---| 
D|------------------| 
A|------------------| 
E|------------------| 

Bridge 2: 

Guitar 1                 
e|------------xxxxxxxxxxxxxxxx--------------------------|  
B|------------xxxxxxxxxxxxxxxx-------------777777-------| 
G|------------xxxxxxxxxxxxxxxx---777-6b----777777-------| 
D|------------xxxxxxxxxxxxxxxx---777---x3---------------| 
A|-77777-x12---------------------555--------------------| 
E|------------------------------------------------------| 
                           





Second Guitar: 
e|------------------------------------------------------------------------------| 
B|------------------------------------------------------------------------------| 
G|----------------------------------------------------------77777777777777------| 
D|-757575757575757575-97979797979797-119119119119119119-x3--77777777777777------| 
A|----------------------------------------------------------55555555555555------| 
E|------------------------------------------------------------------------------| 
Solo: 

e|------------------------------------------------------------------------------------|  
B|-8b---8b---8b---------8b---8b---8b----12p12p12p12p12p12p---10b-10b-10b--------------| 
G|-8b-7-8b-7-8b-7-65-x3-8b-7-8b-7-8b-7--------------------------9---9---9-8p8b8p8b8p8b| 
D|------------------------------------------------------------------------------------| 
A|------------------------------------------------------------------------------------| 
E|------------------------------------------------------------------------------------| 

e|-------------------------------------|  
B|------10b-10b-10b--------------------| 
G|-8765----9---9---9-8p8b8p8b8p8b8p--87| 
D|-------------------------------------| 
A|-------------------------------------| 
E|-------------------------------------| 

Guitar 2 scratches strings throughout solo 
		  

See also:

tabs Cage The Elephant - Back Stabbing Betty tabs Cage The Elephant - Always Something tabs La Vela Puerca - A Lo Verde tabs Cage The Elephant - Lotus tabs Cage The Elephant - Halo tabs Cage The Elephant - Sell Yourself
e-chords

Other versions:

tabs Cage The Elephant - Free Love tabs Washya - Free Love
auto scroll beats size up size down change color hide chords drawings
tab show chords e-chords YouTube Clip e-chords hide all tabs e-chords go to top tab

share