Café Tacuba

home > Café Tacuba

Aviéntame (amores perros) Tab

Café Tacuba

Difficulty: AdvancedAdvanced

by peter

tuner correct add songbook print version text version save to e-mail
chordsukulelecavacokeyboardtabbassdrumsharmonicsflute Guitar Pro
chords

Aviéntame (amores perros)

	  intro :  
  
       Gm 
 E-|-----------------------------------------------| 
 B-|----3-3----3---3---3----3-3----3---3----3------| 
 G-|----3-3----3---3---3----3-3----3---3----3------| 
 D-|-----------------------------------------------| 
 A-|----5-5----5---5---5----5-5----5---5----5------| 
 E-|--------3----3---3----------3----3----3--------| 
    
  
    Gm      A# 
  Abrazameee        
 Am7        D 
  y muerdemeee 
 Am7      D7       D        Gm 
  llevate contigo mis heridas 
 
    Gm      A# 
  avientamee 
 Am7         D 
  y deeejameee 
 Am7      D7       D        Gm 
  mientras yo contemplo tu partida 
         D          Gm 
  en espera de que vuelvas 
        Am7           Gm      D 
  y tal vez vuelvas por miiii 
 
     Gm        A# 
  Y ya te vaaas 
     Am7        D7 
  que meee diraas? 
     D  
  diraas 
             Cm7 
  que poco sabes tu deciiir 
        D/F# 
  despideteee 
       A# 
  ya no estaraaas, 
       Cm7        D             A#  Gm7      
  al menos ten conmigo esa bondaaad 
  
         Cm7 
  te extrañareee 
       A# 
  no mentireee 
    Am7           D         Gm       
  me duele que no estes y tu te vaaas 
 
'solo 1' 
 
 
    Gm      A# 
  amarrameee  
 Am7        D 
  Y muerdemeee 
 Am7      D7       D         Gm    
  llevate contigo mis heridaas 
 
    Gm      A# 
  murmurameeee 
 Am7        D 
  y ladraaameee 
 Am7      D7       D         Gm 
  grita hasta que ya no escuche nadaa 
 
 
'solo 2' 
       Am7          Gm 
  solo ve como me quedo aqui  
       A#           Gm    
  esperando que no estes 
       Am7          Gm            Am7             Gm  
  en espera de que vuelvas y tal vez vuelvas por mii 
       Am7          Gm            Am7             Gm (III-3,IV-5,II-3,I-3)   
  en espera de que vuelvas y tal vez vuelvas por mii 
 
 
 
solos: 
 
  este es el solo que se escucha a la mitad de la cancion y casi al final, 
es muy sencillo: 
   
 
solo 1 
       
       Gm          D/F#             F            Cm7  
 E-|-------------------------------------------------------------- 
 B-|---6-------------6--------------6-------------6--------------- 
 G-|-----7---5-----7---7----------7---7---5-----7---7------------- 
 D-|-------8----8---------8-5--8--------8----8---------8-5--8----- 
 A-|-------------------------------------------------------------- 
 E-|-------------------------------------------------------------- 
 
       Am7             Cm7         Am7         D        Gm    
   ----------------------------------------------------------------| 
   ---6-------------6--------------6-------------6--------------6~-| 
   -----7---5-----7---7----------7---7---5-----7---7-----------7---| 
   -------8----8---------8-5--8--------8----8---------8-5--8-------| 
   ----------------------------------------------------------------| 
   ----------------------------------------------------------------| 
 
 
solo 2  (que basicamente es lo mismo, pero un poco mas corto y se toca mientras se canta): 
  
 
 E-|-------------------------------------------------------------- 
 B-|---6-------------6--------------6-------------6--------------- 
 G-|-----7---5-----7---7----------7---7---5-----7---7------------- 
 D-|-------8----8---------8-5--8--------8----8---------8-5--8----- 
 A-|-------------------------------------------------------------- 
 E-|-------------------------------------------------------------- 
solo ve como me....  
 
   -------------------------------------------------| 
   ---6-------------6--------------6--8-------------| 
   -----7---5-----7---7----------7------5~----------| 
   -------8----8---------8-5--8---------------------| 
   -------------------------------------------------| 
   -------------------------------------------------| 
 
 
acordes: 
 
 Gm   355333      Cm7   335343 
 A#   113331      D/F#  211232  
 Am7  575555      Gm7   353333  
 D    557775      D7    557565 
 
 
Eso es todo; es mi primer transcripción, asi que puede tener errores, pero creo que asi se oye 
bien, de todos modos, en caso de que encuentren algun error o la mejoren haganmelo saber. 
 
Si les llega a gustar esta transcripcion tanto como para utilizarla en alguna otra pagina, al  
menos mencionen mi nombre y avisenme, para visitarlos. 
 
                       
                       PauL_iTo 
                
             
                 
no borren la dedicatoria eh!!! 
	  

there isn't a video lesson for this song

request
Full key step upFull key step up
Half key step upHalf key step up
Half key step downHalf key step down
Full key step downFull key step down
Search
auto scroll beats size up size down change color hide chords drawings
tab show chords e-chords YouTube Clip e-chords hide all tabs e-chords go to top tab