Cachorro Grande

home > Cachorro Grande

Helter Skelter Tab

Cachorro Grande

Difficulty: nolevelnolevel

by victborges

tuner correct add songbook print version text version save to e-mail
chordsukulelecavacokeyboardtabbassdrumsharmonicsflute Guitar Pro
chords

Helter Skelter

  		 When I get to the bottom I go back to the top of the slide 
e|-0--0--------------------------------------------------0--|  
B|-12/3--------------------------------------------------2--|  

Where I stop and I turn and I go for a ride 
e|---------------------------------------0--|  
B|---------------------------------------1--|  

                                         G  E 
Till I get to the bottom and I see you again. 
                                           
E 
Do you, don't you want me to love you 
I'm coming down fast but I'm miles above you 
                              G                           
Tell me tell me tell me come on tell me the answer 
     A                                E 
You may be a lover but you ain't no dancer. 
      
    A  
Helter skelter 
                   
D|--4---2---------|          
A|--4---2-0-2-0---| 
E|----------------|  

      E 
  Helter skelter 
D|--4---2--------|          
A|--4---2--------| 
E|--4---2-0------|  

      A 
   Helter skelter              
D|--4---2-----------|          
A|--4---2-0-2-0-----| 
E|------------------|                           

E 
Will you, won't you want me to make you 
I'm coming down fast but don't let me break you 

G 
Tell me tell me tell me the answer 
A                                     E 
You may be a lover but you ain't no dancer. 

    A  
Helter skelter 
                   
D|--4---2---------|          
A|--4---2-0-2-0---| 
E|----------------|  

      E 
  Helter skelter 
D|--4---2--------|          
A|--4---2--------| 
E|--4---2-0------|  

      A 
   Helter skelter              
D|--4---2-----------|          
A|--4---2-0-2-0-----| 
E|------------------|                           



When I get to the bottom I go back to the top of the slide 
e|-0--------------------------------------------------0--|  
B|-3--------------------------------------------------2--|  

And I stop and I turn and I go for a ride 
e|------------------------------------0--|  
B|------------------------------------1--|  



                                      G  E 
And I get to the bottom and I see you again 

E 
Well do you, don't you want me to make you 
I'm coming down fast but don't let me break you 

G 
Tell me tell me tell me the answer 
A                                     E 
You may be a lover but you ain't no dancer. 


   A  
Helter skelter 
                   
D|--4---2---------|          
A|--4---2-0-2-0---| 
E|----------------|  

      E 
  Helter skelter 
D|--4---2--------|          
A|--4---2--------| 
E|--4---2-0------|  

      A 
   Helter skelter              
D|--4---2-----------|          
A|--4---2-0-2-0-----| 
E|------------------|                           

Yes she is 
Yes she is. 
	  

Full key step upFull key step up
Half key step upHalf key step up
Half key step downHalf key step down
Full key step downFull key step down
Search Paypal
auto scroll beats size up size down change color hide chords drawings
tab show chords e-chords YouTube Clip e-chords hide all tabs e-chords go to top tab