Bullet for my Valentine

Welcome Home Sanitarium Tab

Bullet for my Valentine

Difficulty: EasyEasy

by emergurjao

tuner correct add songbook print version text version save to e-mail
chordsukulelecavacokeyboardtabbassdrumsharmonicsflute Guitar Pro
close

there isn't a video lesson for this song

chords

Welcome Home Sanitarium

  		(intro) 

(gtr. 1 clean) 
E |--------------------------------3-3h5p0-----------------------------| 
B |--------------------------------0-0---------------------------------| 
G |----------------------------------------------------------------------------| 
D |----------------------------------------------------------------------------| 
A |----------------------------------------------------------------------------| 
E |--0-----------------------------------------0-------------------------------| 

E |---0-2--------------------------------------------------------------| 
B |---0-0--------------------------------------------------------------| 
G |-------------------------------------------------------------------------------| 
D |-------------------------------------------------------------------------------| 
A |-------------------------------------------------------------------------------| 
E |-------------0-----------------------0-----------------------0-----------------| 

E |------------------------| 
B |------------------------| 
G |------------------------| 
D |----------------------------| 
A |----------------------------| 
E |0---------------------------| 

(solo 1) 

(rhythm figure 1.) 

(gtr. 1) 
E |----------------------------------------------------------------| 
B |----------------------------------------------------------------| 
G |----------0-----------0-------------0---------------------------| 
D |-------4-----------5-------------7-----------0--------0-------0-| 
A |----2-----------3-----------3/5-----------4--------2------------| 
E |-0-----------0-----------0-------------5--------3--------3/5----|x 8 

(gtr. 2 with distortion *after gtr. 1 plays rhy. fig 1 4 x) 
E |-------------------------10/12-15/1717v--15-1513-12/14-12h14p12----12----------| 
B |-------------------10/12-----------------------------------------15----15-13-12-| 
G |-----11-12-9v---12--------------------------------------------------------------| 
D |---9----------------------------------------------------------------------------| 
A |7------------------------------------------------------------------------------| 
E |--------------------------------------------------------------------------------| 

E |---------------------------------------19v--19------------17-17-15-14----------| 
b|12h13p12-----------------------------17-------17----------------------17-15-14-| 
G |---------14-1211------------------16-----------16~14v------------------------| 
D |------------------12----12/14~-------------------------------------------------| 
A |---------------------14--------------------------------------------------------| 
E |-------------------------------------------------------------------------------| 

E |------------------1210h12p10---------------5------3-----------------| 
B |----------------13----------13-12v~----------------------9v~--------| 
G |16-14-12b~----14-------------------------6------4------6------------| 
D |------------14------------------------/7-----/5-----/7--------------| 
A |--------------------------------------------------------------------| 
E |--------------------------------------------------------------------| 

(verse 1) 
E |----------------------------------------------------------------| 
B |----------------------------------------------------------------| 
G |----------0-----------0-------------0---------------------------| 
D |-------4-----------5-------------7-----------0--------0-------0-| 
A |----2-----------3-----------3/5-----------4--------2------------| 
E |-0-----------0-----------0-------------5--------3--------3/5----|x 4 

Welcome to where time stands still, no one leaves and no one will 
Moon is full never seems to change, just labeled mentally deranged 
Dream the same thing every night, i see our freedom in my sight 
No locked doors, no windows barred , no things to make my brain seem scared 

(pre-Chorus 1) 
(gtr. with distortion) 
E |-----------------------------------------|--| 
B |-----------------------------------------|--| 
g|*------0------0-------0-----------------*|--| 
D |-----4------5-------7-------0-----0---0--|8| 
a|*--2------3-------5-------4-----2-------*|8| 
E |-0------0-------0-------5-----3-----5----|6| 
   . . .  . . .   . . .   . .   . .   . p.m. 

Sleep my friend and you will see that dream is my reality 
Keep me locked up in this cage, can't they see it's why my brain says rage? 

(Chorus 1) 
(gtr. with distortion) 
E |---------------------------------------------| 
B |---------------------------------------------| 
G |------------xx-54-xx-5-4~-444444------------| 
d|2~---xx-54-xx-54-xx-5-4~-444444-0h2p0------| 
a|2~---xx-54-xx-32-xx-3-2~-222222------32----| 
e|0~---xx-32------------------------------5325| 

E |---------------------------------------------| 
B |---------------------------------------------| 
G |------------xx-54-xx-5-4~-444444-5-4---4-2--| 
d|2~---xx-54-xx-54-xx-5-4~-444444-5-4-5-4-2-4| 
a|2~---xx-54-xx-32-xx-3-2~-222222-3-2-5-2-0-4| 
e|0~---xx-32---------------------------3-----2| 

E |---------------------------------------------| 
B |---------------------------------------------| 
G |------------xx-54-xx-5-4~-444444------------| 
d|2~---xx-54-xx-54-xx-5-4~-444444-0h2p0------| 
a|2~---xx-54-xx-32-xx-3-2~-222222------32----| 
e|0~---xx-32------------------------------5325| 

E |---------------------------------------------| 
B |---------------------------------------------| 
G |------------xx-54-xx-5-4~-------------------| 
d|2~---xx-54-xx-54-xx-5-4~-------------------| 
a|2~---xx-54-xx-32-xx-3-2~-------------------| 
e|0~---xx-32----------------------------------| 

(solo 2) 

(gtr.2) 
E |------------------------------------| 
B |----------------------------10------| 
G |-------------------9-9-9/11---------| 
D |------------7-7/9-------------------| 
A |---5-5-7/9--------------------------| 
E |7----------------------------------| 

(gtr.2)   *with rhythm figure 1 4 times 
/e|-----15-17-19-19-------17h19p17---15--17h19p17--------17h19p17-15-----| 
|b|17-19------------17~-----------------------------19-------------------| 
|g|------------------------------------------------------------------16~-| 
|d|----------------------------------------------------------------------| 
|a|----------------------------------------------------------------------| 
|e|----------------------------------------------------------------------| 

(gtr.3) *harmony 
|e|----------------------------------------------------------------------| 
|b|-----------------------21h22p21---19--21h22p21--------21h22p21--------| 
|g|-------------------------------------------------21------------21~----| 
|d|----------------------------------------------------------------------| 
|a|----------------------------------------------------------------------| 
e|----------------------------------------------------------------------| 

E |-----------1415171514h15p14--14-----------------------------------------| 
b|15b16~r15------------------17--171514--14-------------------------------| 
G |-------------------------------------16--1614141214p12--12-------------| 
D |-------------------------------------------------------16--161412--12h14| 
A |-----------------------------------------------------------------16-----| 
E |------------------------------------------------------------------------| 

E |-----17-----15-----14-----12----10---7--------------------------5------3--------| 
b|1715--1514--1412--1210--108--87-7-----------------------------------------| 
G |---------------------------------------7-9/11-9~---999-7------6------4------6-9~| 
D |----------------------------------------9----------------5-/7-----5-----7-----| 
A |--------------------------------------------------------------------------------| 
E |--------------------------------------------------------------------------------| 

(verse 2 - clean) 

E |----------------------------------------------------------------| 
B |----------------------------------------------------------------| 
G |----------0-----------0-------------0---------------------------| 
D |-------4-----------5-------------7-----------0--------0-------0-| 
A |----2-----------3-----------3/5-----------4--------2------------| 
E |-0-----------0-----------0-------------5--------3--------3/5----|x 4 

Build my fear of what's out there, cannot breath the open air 
Whisper things into my brain, assuring me that i'm insane 
They think our heads are in their hands, but violent use brings violent plans 
Keep him tied, it makes him well, he's getting better can't you tell? 

(pre-Chorus 2 - with distortion) 

E |-----------------------------------------|--| 
B |-----------------------------------------|--| 
g|*------0------0-------0-----------------*|--| 
D |-----4------5-------7-------0-----0---0--|8| 
a|*--2------3-------5-------4-----2-------*|8| 
E |-0------0-------0-------5-----3-----5----|6| 
   . . .  . . .   . . .   . .   . .   . p.m. 

No more can they keep us in, listen damn it we will win 
They see it right, they see it well, but they think this saves from our hell 

(Chorus 2) 
E |---------------------------------------------| 
B |---------------------------------------------| 
G |------------xx-54-xx-5-4~-444444------------| 
d|2~---xx-54-xx-54-xx-5-4~-444444-0h2p0------| 
a|2~---xx-54-xx-32-xx-3-2~-222222------32----| 
e|0~---xx-32------------------------------5325| 

E |---------------------------------------------| 
B |---------------------------------------------| 
G |------------xx-54-xx-5-4~-444444-5-4---4-2--| 
d|2~---xx-54-xx-54-xx-5-4~-444444-5-4-5-4-2-4| 
a|2~---xx-54-xx-32-xx-3-2~-222222-3-2-5-2-0-4| 
e|0~---xx-32---------------------------3-----2| 

E |---------------------------------------------| 
B |---------------------------------------------| 
G |------------xx-54-xx-5-4~-444444------------| 
d|2~---xx-54-xx-54-xx-5-4~-444444-0h2p0------| 
a|2~---xx-54-xx-32-xx-3-2~-222222------32----| 
e|0~---xx-32------------------------------5325| 

E |---------------------------------------------| 
B |---------------------------------------------| 
G |------------xx-54-xx-5-4~-------------------| 
d|2~---xx-54-xx-54-xx-5-4~--------0h2p0------| 
a|2~---xx-54-xx-32-xx-3-2~-------------32----| 
e|0~---xx-32------------------------------5323| 

E |---------------------------------------------| 
B |---------------------------------------------| 
G |------------xx-54-xx-5-4~-------------------| 
d|2~---xx-54-xx-54-xx-5-4~--------0h2p0------| 
a|2~---xx-54-xx-32-xx-3-2~-------------32----| 
e|0~---xx-32------------------------------5323| 

(post-Chorus) 
E |----------------------------------------------------------| 
B |----------------------------------------------------------| 
G |----------------------------------------------------------| 
d|2~------------------------------------------2-------------| 
a|2~------------------------------------------2-----*\\\| 
e|0~------------------------------------------0-----*\\\| 
                                                     pickslide 
(bridge) 

(gtr. 1.) 
/e|---------------------------|----------------------------------------------------| 
|b|---------------------------|----------------------------------------------------| 
|g|*-------------------------*|----------------------------------------------------| 
|d|-0h20h2-------0h20h20h20h2-|---------0h20h2-------0h20h20h20h20h20h20h20h20h20h2| 
|a|*-------------------------*|----------------------------------------------------| 
|e|-------0000000-------------|000000000------0000000------------------------------| 
|         .......              .........      .......  p.m. 
(gtr. 2.) 
|e|---------------------------|----------------------------------------------------| 
|b|---------------------------|----------------------------------------------------| 
|g|*-------------------------*|----------------------------------------------------| 
|d|---------------------------|----------------------------------------------------| 
|a|*5h75h7-------5h75h75h75h7*|---------5h75h7-------5h75h75h75h75h75h75h75h75h75h7| 
e|-------0000000-------------|000000000------0000000------------------------------| 
          .......              ......... 

(gtr.1)                        (gtr. 1 & 2 interlude) 
/e|-----------------------------|-------------------------------------| 
|b|-----------------------------|-------------------------------------| 
|g|-----------------------------|*--------7~-------------5~-5-4x4----*| 
|d|-------0h20h20h20h2------0h2-|-2~---2--7~---2--3~--2--5~-5-4x4--2--| 
|a|-----------------------------|*2~---2--5~---2--3~--2--3~-3-2x2--2-*| 
|e|0000000------------000000----|-0~--000-----000-1~-000----------000-| 
|  .......            ......          . .     . .    . .          . . p.m. 
| 
|  (gtr. 2) 
|e|-----------------------------| 
|b|-----------------------------| 
|g|-----------------------------| 
|d|-----------------------------| 
|a|-------5h75h75h75h7------5h7-| 
e|0000000------------000000----| 
   ....... 

E |--------------| 
B |--------------| 
G |--------------| 
D |--------------| 
A |--------------| 
e|00000000000000| 
  .............. p.m. 

(solo 3) *gtr.1 & 2 plays bridge 1 
(gtr.3) 

Still working on it. 

(bridge 2) 
(gtr. 1 & 2) 
/e|------------------------------------------------------------------------| 
|b|------------------------------------------------------------------------| 
|g|------------7~--7-------------/7~----7------------------5~---4---4~-----| 
|d|2~--2----2--7~--7----2--2-2-2-/7~----7---2--3~------2---5~---4---4~-----| 
|a|2~--2----2--5~--5----2--2-2-2-/5~----5---2--3~------2---3~--020--2~-----| 
|e|0~--0---000---------000-0-0-0-----------000-1~-----000------------------| 
|          . .         . .                 . .        . .             p.m. 

(gtr. 3) 
|e|------------------------------------------------------------------------| 
|b|------------------------------------------------------------------------| 
|g|------------------------------------------------------------------------| 
|d|------------------------------------------------------------------------| 
|a|-----------------------7-7-5-/9~--9-9-7-/10-9-8~--8-8-10-8-7~--6-6-7-9-7| 
e|------------------------------------------------------------------------| 

(gtr. 1 & 2) 
/e|------------------------------------------------------| 
|b|------------------------------------------------------| 
|g|*------------------7~------------------------5---4--4*| 
|d|---2---2~------2---7~-------2---3~-------2---5---4--4-| 
|a|*--2---2~------2---5~-------2---3~-------2---3--020-2*| 
|e|--000--0~-----000----------000--1~------000-----------| 
|    . .         . .           . .          . .      p.m. 

(gtr. 3) 
|e|------------------------------------------------------| 
|b|------------------------------------------------------| 
|g|*----------------------------------------------------*| 
|d|------------------------------------------------------| 
|a|*---7-7-5-/9~--9-9-7-/10-9-8~--8-8-10-8-7~--6-6-7-9-7*| 
e|------------------------------------------------------| 

(gtr. 1 & 2) 
/e|------------------------------------------------------| 
|b|------------------------------------------------------| 
|g|-------------------7~------------------------5---4--4-| 
|d|---2---2~------2---7~-------2---3~-------2---5---4--4-| 
|a|---2---2~------2---5~-------2---3~-------2---3--020-2-| 
|e|--000--0~-----000----------000--1~------000-----------| 
|    . .         . .           . .          . .      p.m. 

(gtr. 3) 
|e|------------------------------------------------------| 
|b|------------------------------------------------------| 
|g|*----------------------------------------------------*| 
|d|------------------------------------------------------| 
|a|*---7-7-5-/9~--9-9-7-/10-9-8~--8-8-10-8-7~--6-6-7-9-7*| 
|e|------------------------------------------------------| 
| 
(gtr. 4) 
|e|------------------------------------------------------| 
|b|------------------------------------------------------| 
|g|-----------------------4-7-5~--5-5-7--5--------------*| 
|d|----5-5-4-5-/7-7-7-5-7------------------5~--4-4-5-7-5-| 
|a|-----------------------------------------------------*| 
e|------------------------------------------------------| 

(gtr. 1 & 2) 
/e|------------------------------------------------------| 
|b|------------------------------------------------------| 
|g|-------------------7~------------------------5---4--4-| 
|d|---2---2~------2---7~-------2---3~-------2---5---4--4-| 
|a|---2---2~------2---5~-------2---3~-------2---3--020-2-| 
|e|--000--0~-----000----------000--1~------000-----------| 
|    . .         . .           . .          . .      p.m. 

(gtr. 3) 
|e|-------------------------------------------------------| 
|b|-----------------------121513~-13131513----------------| 
|g|---1212111214~-14141214----------------12~--1212111412~| 
|d|-------------------------------------------------------| 
|a|-------------------------------------------------------| 
|e|-------------------------------------------------------| 
| 
(gtr. 4) 
|e|-------------------------------------------------------| 
|b|-------------------------------------------------------| 
|g|-----------------------161917~-17171917----------------| 
|d|---1717161719~-19191719----------------17~--1616171917~| 
|a|-------------------------------------------------------| 
e|-------------------------------------------------------| 

(outro) 
(gtr. 1 & 2) 
E |---------------------------------------------| 
B |---------------------------------------------| 
G |----------7--7~-------------5--5~----4-4-4-4~| 
D |-2--2~----7--7~----3--3~----5--5~----4-4-4-4~| 
A |-2--2~---050-5~----3--3~---030-3~----2-2-2-2~| 
E |000-0~------------010-1~---------------------| 
  . .      . .      . .      . .       . . . . p.m. 
E |-----------------------------------------------------------------------------| 
B |-----------------------------------------------------------------------------| 
G |----------------7--7~-7-7-7-7-----------------5--5~-4-4-4-4--4-4-4-4--4-4-4-4| 
D |-2--2~-2-2-2-2--7--7~-7-7-7-7--3--3~-3-3-3-3--5--5~-4-4-4-4--4-4-4-4--4-4-4-4| 
A |-2--2~-2-2-2-2-050-5~-5-5-5-5--3--3~-3-3-3-3-030-3~-2-2-2-2--2-2-2-2--2-2-2-2| 
E |000-0~-0-0-0-0----------------010-1~-1-1-1-1---------------------------------| 
  . .            . .            . .            . .    . . . .  . . . .  . . . 

(gtr. 1) 
/e|-----------------------------------------------| 
|b|2----------------------------------------------| 
|g|2----------------------------------------------| 
|d|0---------2~-----------------------------------| 
|a|--/10-9v~-2~----------------------------/1010--| 
|e|----------0~-----------------------------------| 
|            = tremelo picking 

(gtr. 2) 
|e|-----------------------------------------------| 
|b|2----------------------------------------------| 
|g|2----------------------------------------------| 
|d|0---------2~-----------------------------------| 
|a|----------2~-----------------------------------| 
|e|--/12-11v-0~----------------------------/1212--| 
             = tremelo picking 
(end - for now) 
	  

auto scroll beats size up size down change color hide chords drawings
tab show chords e-chords YouTube Clip e-chords hide all tabs e-chords go to top tab

share with facebook

Search Paypal