Bullet for my Valentine

Truth Hurts

Bullet for my Valentine

tabs

by  JOV-CORREA

save to print version add songbook text version e-mail correct tuner
chordsukulelecavacokeyboardtabbassdrumsharmonicaflute Guitar Pro
close

there isn't a video lesson for this song

chords

Truth Hurts

	  		 

Intro 1:

Padge 
D|-----------------------------------------------------------------------| 
A|-----------------------------------------------------------------------| 
F|-------------------------------------------------------------0---------| X4 
C|---------2h3p2p0h2p0---------------------2h3p2p0h2p0-----2h3-----------| 
G|-0-0-0-0-------------3h5-0-0-0-0-0-0-0-0-------------3h5---------------| 
C|-0-0-0-0-----------------0-0-0-0-0-0-0-0-------------------------------| 
   . . . .                 . . . . . . . .  
Matt 
D|-----------------------------------------------------------------------| 
A|-----------------------------------------------------------------------| 
F|-----------------------------------------------------------------------| X4 
C|-----------------------------------------------------------------------| 
G|-0-0-0-0-----------------0-0-0-0-0-0-0-0-------------------------------| 
C|-0-0-0-0-----------------0-0-0-0-0-0-0-0-------------------------------| 
   . . . .                 . . . . . . . .  

---Intro 2--- 

Padge 
D|-----------------------------------------------------------------------| 
A|-----------------------------------------------------------------------| 
F|-7-7-7-7-7-7-7-7-7-7-7-7-7-7-9-9-10101010101010101010101010109-9-------| 
C|-x-x-x-x-x-x-x-x-x-x-x-x-x-x-x-x-x-x-x-x-x-x-x-x-x-x-x-x-x-x-x-x-------| 
G|-5-5-5-5-5-5-5-5-5-5-5-5-5-5-7-7-8-8-8-8-8-8-8-8-8-8-8-8-8-8-7-7-------| 
C|-----------------------------------------------------------------------| 

D|-----------------------------------------------------------------------| 
A|-----------------------------------------------------------------------| 
F|-5-5-5-5-5-5-5-5-5-5-5-5-5-5-7-7-10101010101010101212121214141414------| 
C|-x-x-x-x-x-x-x-x-x-x-x-x-x-x-x-x-x-x-x-x-x-x-x-x-x-x-x-x-x-x-x-x-------| 
G|-3-3-3-3-3-3-3-3-3-3-3-3-3-3-5-5-8-8-8-8-8-8-8-8-1010101012121212------| 
C|-----------------------------------------------------------------------| 

Matt 
D|-----------------------------------------------------------------------| 
A|-----------------------------------------------------------------------| 
F|-77777-------777777777-------999-1010101010--101010101010101010--/12---| 
C|-77777-------777777777-------999-1010101010--101010101010101010--/12---| 
G|-55555-------555555555-------777-8-8-8-8-8---8-8-8-8-8-8-8-8-8---/10---| 
C|-----------------------------------------------------------------------| 
   ....        ........        ..  . . . .     . . . . . . . . 

D|-----------------------------------------------------------------------| 
A|-----------------------------------------------------------------------| 
F|-55555-------555555555-------777---------------------------------------| 
C|-55555-------555555555-------777-77777-------7777777788888--1010101010-| 
G|-33333-------333333333-------555-77777-------7777777788888--1010101010-| 
C|---------------------------------77777-------7777777788888--1010101010-| 
   ....        ........        ..  ....        ............   . . . . 

---Pre Verse--- 
Padge 
D|-----------------------------------------------------------------------| 
A|-----------------------------------------------------------------------| 
F|-7777--------77777777--------9999--------1010101010\-------------------| 
C|-xxxx--------xxxxxxxx--------xxxx--------x-x-x-x-x-\-------------------| 
G|-5555--------55555555--------7777--------8-8-8-8-8-\-------------------| 
C|-----------------------------------------------------------------------| 

Matt 
D|-----------------------------------------------------------------------| 
A|-----------------------------------------------------------------------| 
F|-7777--------77777777--------7777--------77777-------------------------| 
C|-xxxx--------xxxxxxxx--------xxxx--------xxxxx-------------------------| 
G|-5555--------55555555--------5555--------55555-------------------------| 
C|-----------------------------------------------------------------------| 

---Verse 1--- 

Both guitars 
D|------------------------------------------------------------------------| 
A|------------------------------------------------------------------------| 
F|------------------------------------------------------------------------| 
C|-0000--000000--0000----------00000000--0000--000000--0000---------------| 
G|-0000--000000--0000----------00000000--0000--000000--0000---------------| 
C|-0000--000000--0000----------00000000--0000--000000--0000---------------| 
   ....  ......  ....          ........  ....  ......  .... 

Padge 
D|-------------------| 
A|-------------------| 
F|-------------------| 
C|-7p0-3p0-5p0-2p0---| 
G|-------------------| 
C|-------------------| 

Both guitars 
D|------------------------------------------------------------------------| 
A|------------------------------------------------------------------------| 
F|----------------------------------------------------------9~------------| 
C|-0000--000000--0000----------00000000--0000--000000--0000-7~------------| 
G|-0000--000000--0000----------00000000--0000--000000--0000-5~------------| 
C|-0000--000000--0000----------00000000--0000--000000--0000---------------| 
   ....  ......  ....          ........  ....  ......  .... 

Both guitars (I think only Padge plays this but can?t hear any other parts) 
D|-----------------------------------------------------------------------| 
A|-----------------------------------------------------------------------| 
F|-----------------------------------------------------------------------|X4 
C|-70080050070030050020030000000000--------------------------------------| 
G|-----------------------------------------------------------------------| 
C|-----------------------------------------------------------------------| 
   ................................ 

---Pre Chorus--- 
Padge 
D|-----------------------------------------------------------------------| 
A|-----------------------------------------------------------------------| 
F|-------------------------7---------------------------------------------| 
C|-------------------------7---------------------------------------------| 
G|-------------------------5---------------------------------------------| 
C|-700800500700300500200300----------------------------------------------| 

---Chorus--- 
Same as intro 2 

---Pre verse--- 
Same as pre verse 

---Verse 2--- 
Same as verse 1 

---Pre chorus--- 
Same as pre chorus 

---Chorus--- 
Same as intro 2 but X2 

---Interlude--- 
Padge 
D|-----------------------------------------------------------------------| 
A|-----------------------------------------------------------------------| 
F|-1010101010101010--101010121212--9-9-9-9-9-9-9-9---10101010101010------| 
C|-x-x-x-x-x-x-x-x---x-x-x-x-x-x---x-x-x-x-x-x-x-x---x-x-x-x-x-x-x-------| 
G|-8-8-8-8-8-8-8-8---8-8-8-101010--7-7-7-7-7-7-7-7---8-8-8-8-8-8-8-------| 
C|-----------------------------------------------------------------------| 
                                                                         |-X2 
D|-----------------------------------------------------------------------| 
A|-----------------------------------------------------------------------| 
F|-1414141414141412--12121212121212101010101010109---9-9-9-9b10r9--------| 
C|-x-x-x-x-x-x-x-x---x-x-x-x-x-x-x-x-x-x-x-x-x-x-x---x-x-x-x-------------| 
G|-1212121212121210--101010101010108-8-8-8-8-8-8-7---7-7-7-7b8-r7--------| 
C|-----------------------------------------------------------------------| 

Matt 
D|-----------------------------------------------------------------------| 
A|-----------------------------------------------------------------------| 
F|-----------------------------------------------------------------------| 
C|-0-0-0-0-0-0-0-0---0-0-0-0-0-0-0-3-3-3-3-3-3-3-3---3-3-3-3-3-3-3-------| 
G|-0-0-0-0-0-0-0-0---0-0-0-0-0-0-0-3-3-3-3-3-3-3-3---3-3-3-3-3-3-3-------| 
C|-0-0-0-0-0-0-0-0---0-0-0-0-0-0-0-3-3-3-3-3-3-3-3---3-3-3-3-3-3-3-------| 
                                                                         |-X2 
D|-----------------------------------------------------------------------| 
A|-----------------------------------------------------------------------| 
F|-----------------------------------------------------------------------| 
C|-8-8-8-8-8-8-8-8---8-8-8-8-8-8-8-1010101010101010--10101010101010------| 
G|-8-8-8-8-8-8-8-8---8-8-8-8-8-8-8-1010101010101010--10101010101010------| 
C|-8-8-8-8-8-8-8-8---8-8-8-8-8-8-8-1010101010101010--10101010101010------| 


Pre Chorus 2 

Padge 
D|-----------------------------------------------------------------------| 
A|-----------------------------------------------------------------------| 
F|-10--------------------------------------------------------------------| 
C|-x-------------------------------\\\\\\\\\\\\\\\\\\\\\\\\--------------| 
G|-8-------------------------------\\\\\\\\\\\\\\\\\\\\\\\\--------------| 
C|---------------------------------\\\\\\\\\\\\\\\\\\\\\\\\--------------| 
                                     PICK SCRAPE! 
Matt 
D|-----------------------------------------------------------------------| 
A|-----------------------------------------------------------------------| 
F|-----------------------------------------------------------------------| 
C|-0-------------------------------\\\\\\\\\\\\\\\\\\\\\\\\--------------| 
G|-0-------------------------------\\\\\\\\\\\\\\\\\\\\\\\\--------------| 
C|-0-------------------------------\\\\\\\\\\\\\\\\\\\\\\\\--------------| 
                                     PICK SCRAPE! 

 
		  

See also:

tabs Bullet for my Valentine - Things I Hate (revolve Around Me) tabs Bullet for my Valentine - No control tabs Bullet for my Valentine - Riot tabs Bullet for my Valentine - Livin' Life (on The Edge Of A Knife) tabs Bullet for my Valentine - Just Another Star tabs Bullet for my Valentine - Tears Dont Fall Acoustic
e-chords

Other versions:

tabs Bullet for my Valentine - Truth Hurts
auto scroll beats size up size down change color hide chords drawings
tab show chords e-chords YouTube Clip e-chords hide all tabs e-chords go to top tab

share