Bullet for my Valentine

The Harder The Heart The Harder It Breaks

Bullet for my Valentine

tabs

by  TERCMORAES

save to print version add songbook text version e-mail correct tuner
chordsukulelecavacokeyboardtabbassdrumsharmonicaflute Guitar Pro
close

there isn't a video lesson for this song

chords

The Harder The Heart The Harder It Breaks

	  		
Intro (0:00 - 0:30) 

Guitar 1 

   1   &   2   &   3   &   4   &     1   &   2   &   3   &   4   &    
D|---------------------------------|---------------------------------| 
A|---------------------------------|---------------------------------| 
F|---------------------------------|---------------------------------| 
C|-0~------------------------------|(0)------------------------------| 
G|-0~------------------------------|(0)------------------------------| 
C|-0~------------------------------|(0)------------------------------| 

   1   &   2   &   3   &   4   &     1   &   2   &   3   &   4   &    
D|---------------------------------|---------------------------------| 
A|---------------------------------|---------------------------------| 
F|---------------------------------|---------------------------------| 
C|(0)------------------------------|---------------------------------| 
G|(0)--------------------------0---|-0-------------------------------| 
C|(0)--------------------------0---|-0-------------------------------| 
                               .     . 

   1   &   2   &   3   &   4   &     1   &   2   &   3   &   4   &    
D|---------------------------------|---------------------------------| 
A|---------------------------------|---------------------------------| 
F|---------------------------------|---------------------------------| 
C|/////////////////////\\\\\\\\\\\\\\\\\\\\\\\\\\\\\\\\\\\\\\\\\\\\\\| 
G|/////////////////////\\\slides everywhere\\\\\\\\\\\\\\\\\\\\\\\\\\| 
C|/////////////////////\\\\\\\\\\\\\\\\\\\\\\\\\\\\\\\\\\\\\\\\\\\\\\| 

yeeeeeeeeeeeeaaaaaaaaahhhhhhhhhhhh 

   1   &   2   &   3   &   4   &     1   &   2   &   3   &   4   &    
D|---------------------------------|---------------------------------| 
A|---------------------------------|---------------------------------| 
F|---------------------------------|---------------------------------| 
C|-----------------------------0---|---------------------------------| 
G|-0-0-0---0-0-0---0---0-0---0-0---|-----0---0-0---------0-0-0-0-----| 
C|-0-0-0---0-0-0---0---0-0---0-0---|-----0---0-0---------0-0-0-0-----| 
   . . .   . . .   .   . .   .           .   . .         . . . . 
YEEEEEEEAAAAAAAAHHHHHHHHHH!!!!!! 

   1   &   2   &   3   &   4   &     1   &   2   &   3   &   4   &    
D|---------------------------------|---------------------------------| 
A|---------------------------------|---------------------------------| 
F|---------------------------------|---------------------------------| 
C|-----------------------------0---|---------------------------------| 
G|-0-0-0---0-0-0---0---0-0---0-0---|-----0---0-0-----3--3--3-2--2--2-| 
C|-0-0-0---0-0-0---0---0-0---0-0---|-----0---0-0-----3--3--3-2--2--2-| 
   . . .   . . .   .   . .   .           .   . .     .  .  . .  .  . 

   1   &   2   &   3   &   4   &     1   &   2   &   3   &   4   &    
D|---------------------------------|---------------------------------| 
A|---------------------------------|---------------------------------| 
F|---------------------------------|---------------------------------| 
C|-----------------------------0---|---------------------------------| 
G|-0-0-0---0-0-0---0---0-0---0-0---|-----0---0-0---------0-0-0-0-----| 
C|-0-0-0---0-0-0---0---0-0---0-0---|-----0---0-0---------0-0-0-0-----| 
   . . .   . . .   .   . .   .           .   . .         . . . . 

   1   &   2   &   3   &   4   &     1   &   2   &   3   &   4   &    
D|---------------------------------|---------------------------------| 
A|---------------------------------|---------------------------------| 
F|---------------------------------|-7-----------9-----------10------| 
C|-----------------------------0---|-x-----------x-----------x-------| 
G|-0-0-0---0-0-0---0---0-0---0-0---|-5-----------7-----------8-------| 
C|-0-0-0---0-0-0---0---0-0---0-0---|---------------------------------| 
   . . .   . . .   .   . .   . 

Guitar 2 (Make sure to get those pesky timing nuances in this riff) 

         1    &     2    &    3     &    4    &     1    &     2    &    3     &    4    &    
D|-----|------------------------------------------|------------------------------------------| 
A|-----|------------------------------------------|------------------------------------------| 
F|-----|------------------------------------------|------------------------------------------| 
C|-0h7-|t12p0h7-t12p0h7-t12p0h7-t12p0h7-t12p7p0h7-|t12p0h7-t12p0h7-t12p0h7-t12p0h7-t12p7p0h7-| 
G|-----|------------------------------------------|------------------------------------------|---| 
C|-----|------------------------------------------|------------------------------------------|   | 
                                                                                                 | x3 
   1    &     2    &    3     &    4    &     1    &     2    &    3     &    4     &            | 
D|------------------------------------------|-------------------------------------------|        | 
A|------------------------------------------|-------------------------------------------|--------| 
F|------------------------------------------|-------------------------------------------| 
C|t15p0h7-t15p0h7-t15p0h7-t15p0h7-t15p7p0h7-|t17p0h7-t17p0h7-t14p0h7-t14p0h7-t14/15p0h7-| 
G|------------------------------------------|-------------------------------------------| 
C|------------------------------------------|-------------------------------------------| 

   1    &     2    &    3     &    4    &     1    &     2    &    3     &    4     &    
D|------------------------------------------|------------------------------------------| 
A|------------------------------------------|------------------------------------------| 
F|------------------------------------------|------------------------------------------| 
C|t12p0h7-t12p0h7-t12p0h7-t12p0h7-t12p7p0h7-|t12p0h7-t12p0h7-t12p0h7-t12p0h7-t12p7p0h7-| 
G|------------------------------------------|------------------------------------------| 
C|------------------------------------------|------------------------------------------| 

   1    &     2    &    3     &    4    &       1   &   2   &   3   &   4   &    
D|------------------------------------------|---------------------------------| 
A|------------------------------------------|---------------------------------| 
F|------------------------------------------|-10----------12----------14------| 
C|t15p0h7-t15p0h7-t15p0h7-t15p0h7-t15p7p0h7-|-x-----------x-----------x-------| 
G|------------------------------------------|-8-----------10----------12------| 
C|------------------------------------------|---------------------------------| 

Guitar 3 (Comes in at the point where Matt yells YEEEEAAAAH!) 

   1    &     2    &    3     &    4    &     1    &     2    &    3     &    4     &    
D|------------------------------------------|------------------------------------------| 
A|------------------------------------------|------------------------------------------| 
F|------------------------------------------|------------------------------------------| 
C|t15p0h7-t15p0h7-t15p0h7-t15p0h7-t15p7p0h7-|t15p0h7-t15p0h7-t15p0h7-t15p0h7-t15p7p0h7-| 
G|------------------------------------------|------------------------------------------| 
C|------------------------------------------|------------------------------------------| 

   1    &     2    &    3     &    4    &       1    &     2    &    3     &    4     &     
D|------------------------------------------|-------------------------------------------| 
A|------------------------------------------|-------------------------------------------| 
F|------------------------------------------|-------------------------------------------| 
C|t19p0h7-t19p0h7-t19p0h7-t19p0h7-t19p7p0h7-|t20p0h7-t20p0h7-t17p0h7-t17p0h7-t17/19p0h7-| 
G|------------------------------------------|-------------------------------------------| 
C|------------------------------------------|-------------------------------------------| 

   1    &     2    &    3     &    4    &     1    &     2    &    3     &    4     &    
D|------------------------------------------|------------------------------------------| 
A|------------------------------------------|------------------------------------------| 
F|------------------------------------------|------------------------------------------| 
C|t15p0h7-t15p0h7-t15p0h7-t15p0h7-t15p7p0h7-|t15p0h7-t15p0h7-t15p0h7-t15p0h7-t15p7p0h7-| 
G|------------------------------------------|------------------------------------------| 
C|------------------------------------------|------------------------------------------| 

   1    &     2    &    3     &    4    &     1    &     2    &    3     &    4     &     
D|------------------------------------------|-------------------------------------------| 
A|------------------------------------------|-------------------------------------------| 
F|------------------------------------------|-------------------------------------------| 
C|t19p0h7-t19p0h7-t19p0h7-t19p0h7-t19p7p0h7-|-------------------------------------------| 
G|------------------------------------------|-------------------------------------------| 
C|------------------------------------------|-------------------------------------------| 


verse 1 (0:30 - 0:59) 

Guitar 1 

   1   &   2   &   3   &   4   &     1   &   2   &   3   &   4   &    
D|---------------------------------|---------------------------------| 
A|---------------------------------|---------------------------------| 
F|---------------------------------|---------------------------------| 
C|---------------------------------|---------------------------------| 
G|-0-0-0-0-0-----------0-0-----0-0-|-0-0-0-0-0-----------0-0-----0-0-| 
C|-0-0-0-0-0-----------0-0-----0-0-|-0-0-0-0-0-----------0-0-----0-0-| 
   . . . . .           . .     . .   . . . . .           . .     . . 
I'M... NOT THE REASON YOU'RE EMPTY 

   1   &   2   &   3   &   4   &     1   &   2   &   3   &   4   &    
D|---------------------------------|---------------------------------| 
A|---------------------------------|---------------------------------| 
F|---------------------------------|-----------------9~------10~-----| 
C|---------------------------------|-----------------x-------x-------| 
G|-0-0-0-0-0-----------0-0-----0-0-|-0-0-0-0-0-------7~------8~------| 
C|-0-0-0-0-0-----------0-0-----0-0-|-0-0-0-0-0---0-0-----0-0---------| 
   . . . . .           . .     . .   . . . . .   . .     . . 
I'm not your scapegoat, your shoulder to cry on. 

   1   &   2   &   3   &   4   &     1   &   2   &   3   &   4   &    
D|---------------------------------|---------------------------------| 
A|---------------------------------|---------------------------------| 
F|---------------------------------|---------------------------------| 
C|---------------------------------|---------------------------------| 
G|-0-0-0-0-0-----------0-0-----0-0-|-0-0-0-0-0-----------0-0-----0-0-| 
C|-0-0-0-0-0-----------0-0-----0-0-|-0-0-0-0-0-----------0-0-----0-0-| 
   . . . . .           . .     . .   . . . . .           . .     . . 
I'M... JUST THE PERSON YOU NEEDED 

   1   &   2   &   3   &   4   &     1   &   2   &   3   &   4   &    
D|---------------------------------|---------------------------------| 
A|---------------------------------|---------------------------------| 
F|---------------------------------|-----------------10~-----9~------| 
C|---------------------------------|-----------------x-------x-------| 
G|-0-0-0-0-0-----------0-0-----0-0-|-0-0-0-0-0-------8~------7~------| 
C|-0-0-0-0-0-----------0-0-----0-0-|-0-0-0-0-0---0-0-----0-0---------| 
   . . . . .           . .     . .   . . . . .   . .     . . 
But you've gone and let your demons tear us a- 

   1   &   2   &   3   &   4   &     1   &   2   &   3   &   4   &    
D|---------------------------------|---------------------------------| 
A|---------------------------------|---------------------------------| 
F|---------7-----------------------|---------------------------------| 
C|---------7---0-------------------|---------1---0-------------------| 
G|---------5---0-------0-0-----0-0-|-0-0-0-0-1---0-------0-0-----0-0-| 
C|-------------0-------0-0-----0-0-|-0-0-0-0-1---0-------0-0-----0-0-| 
                       . .     . .   . . . .             . .     . . 
           PART! Can't you see?                          That you... 

   1   &   2   &   3   &   4   &     1   &   2   &   3   &   4   &    
D|---------------------------------|---------------------------------| 
A|---------------------------------|---------------------------------| 
F|---------7-----------------------|-----------------9-------10------| 
C|---------7---0-------------------|---------1-------x-------x-------| 
G|-0-0-0-0-5---0-------0-0-----0-0-|-0-0-0-0-1-------7-------8-------| 
C|-0-0-0-0-----0-------0-0-----0-0-|-0-0-0-0-1---0-0-----0-0---------| 
   . . . .             . .     . .   . . . .     . .     . . 
...need?               A little moment of clarity? 

   1   &   2   &   3   &   4   &     1   &   2   &   3   &   4   &    
D|---------------------------------|---------------------------------| 
A|---------------------------------|---------------------------------| 
F|---------7-----------------------|---------------------------------| 
C|---------7---0-------------------|---------1---0-------------------| 
G|-0-0-0-0-5---0-------0-0-----0-0-|-0-0-0-0-1---0-------0-0-----0-0-| 
C|-0-0-0-0-----0-------0-0-----0-0-|-0-0-0-0-1---0-------0-0-----0-0-| 
   . . . .             . .     . .   . . . .             . .     . . 
   WHY?!               Can't you see?                    Can't believe 

   1   &   2   &   3   &   4   &     1   &   2   &   3   &   4   &    
D|---------------------------------|---------------------------------| 
A|---------------------------------|---------------------------------| 
F|---------7-----------------------|-----------------10------9-------| 
C|---------7---0-------------------|---------1-------x-------x-------| 
G|-0-0-0-0-5---0-------0-0-----0-0-|-0-0-0-0-1-------8-------7-------| 
C|-0-0-0-0-----0-------0-0-----0-0-|-0-0-0-0-1---0-0-----0-0---------| 
   . . . .             . .     . .   . . . .     . .     . . 
                       That you are your own worst enemy? 

Guitar 2 

   1   &   2   &   3   &   4   &     1   &   2   &   3   &   4   &    
D|---------------------------------|---------------------------------| 
A|---------------------------------|---------------------------------| 
F|---------------------------------|---------------------------------| 
C|---------------------------------|---------------------------------| 
G|-0-0-0-0-0-----------0-0-----0-0-|-0-0-0-0-0-----------0-0-----0-0-| 
C|-0-0-0-0-0-----------0-0-----0-0-|-0-0-0-0-0-----------0-0-----0-0-| 
   . . . . .           . .     . .   . . . . .           . .     . . 
I'M... NOT THE REASON YOU'RE EMPTY 

   1   &   2   &   3   &   4   &     1   &   2   &   3   &   4   &    
D|---------------------------------|---------------------------------| 
A|---------------------------------|---------------------------------| 
F|---------------------------------|-----------------12~-----14~-----| 
C|---------------------------------|-----------------x-------x-------| 
G|-0-0-0-0-0-----------0-0-----0-0-|-0-0-0-0-0-------10~-----12~-----| 
C|-0-0-0-0-0-----------0-0-----0-0-|-0-0-0-0-0---0-0-----0-0---------| 
   . . . . .           . .     . .   . . . . .   . .     . . 
I'm not your scapegoat, your shoulder to cry on. 

   1   &   2   &   3   &   4   &     1   &   2   &   3   &   4   &    
D|---------------------------------|---------------------------------| 
A|---------------------------------|---------------------------------| 
F|---------------------------------|---------------------------------| 
C|---------------------------------|---------------------------------| 
G|-0-0-0-0-0-----------0-0-----0-0-|-0-0-0-0-0-----------0-0-----0-0-| 
C|-0-0-0-0-0-----------0-0-----0-0-|-0-0-0-0-0-----------0-0-----0-0-| 
   . . . . .           . .     . .   . . . . .           . .     . . 
I'M... JUST THE PERSON YOU NEEDED 

   1   &   2   &   3   &   4   &     1   &   2   &   3   &   4   &    
D|---------------------------------|---------------------------------| 
A|---------------------------------|---------------------------------| 
F|---------------------------------|-----------------14~-----12~-----| 
C|---------------------------------|-----------------x-------x-------| 
G|-0-0-0-0-0-----------0-0-----0-0-|-0-0-0-0-0-------12~-----10~-----| 
C|-0-0-0-0-0-----------0-0-----0-0-|-0-0-0-0-0---0-0-----0-0---------| 
   . . . . .           . .     . .   . . . . .   . .     . . 
But you've gone and let your demons tear us a- 

   1   &   2   &   3   &   4   &     1   &   2   &   3   &   4   &    
D|---------------------------------|---------------------------------| 
A|---------------------------------|---------------------------------| 
F|---------7-----------------------|---------------------------------| 
C|---------7---0-------------------|---------1---0-------------------| 
G|---------5---0-------0-0-----0-0-|-0-0-0-0-1---0-------0-0-----0-0-| 
C|-------------0-------0-0-----0-0-|-0-0-0-0-1---0-------0-0-----0-0-| 
                       . .     . .   . . . .             . .     . . 
           PART! Can't you see?                          That you... 

   1   &   2   &   3   &   4   &     1   &   2   &   3   &   4   &    
D|---------------------------------|---------------------------------| 
A|---------------------------------|---------------------------------| 
F|---------7-----------------------|-----------------12------14------| 
C|---------7---0-------------------|---------1-------x-------x-------| 
G|-0-0-0-0-5---0-------0-0-----0-0-|-0-0-0-0-1-------10------12------| 
C|-0-0-0-0-----0-------0-0-----0-0-|-0-0-0-0-1---0-0-----0-0---------| 
   . . . .             . .     . .   . . . .     . .     . . 
...need?               A little moment of clarity? 

   1   &   2   &   3   &   4   &     1   &   2   &   3   &   4   &    
D|---------------------------------|---------------------------------| 
A|---------------------------------|---------------------------------| 
F|---------7-----------------------|---------------------------------| 
C|---------7---0-------------------|---------1---0-------------------| 
G|-0-0-0-0-5---0-------0-0-----0-0-|-0-0-0-0-1---0-------0-0-----0-0-| 
C|-0-0-0-0-----0-------0-0-----0-0-|-0-0-0-0-1---0-------0-0-----0-0-| 
   . . . .             . .     . .   . . . .             . .     . . 
   WHY?!               Can't you see?                    Can't believe 

   1   &   2   &   3   &   4   &     1   &   2   &   3   &   4   &    
D|---------------------------------|---------------------------------| 
A|---------------------------------|---------------------------------| 
F|---------7-----------------------|-----------------14------12------| 
C|---------7---0-------------------|---------1-------x-------x-------| 
G|-0-0-0-0-5---0-------0-0-----0-0-|-0-0-0-0-1-------12------10------| 
C|-0-0-0-0-----0-------0-0-----0-0-|-0-0-0-0-1---0-0-----0-0---------| 
   . . . .             . .     . .   . . . .     . .     . . 
                       That you are your own worst enemy? 


Pre-Chorus (0:59 - 1:13) 

Guitar 1 

   1   &   2   &   3   &   4   &     1   &   2   &   3   &   4   &    
D|---------------------------------|---------------------------------| 
A|---------------------------------|---------------------------------| 
F|---------------------------------|---------------------------------| 
C|-5-----7-----0-------------------|-5-----7---------7-----8---------| 
G|-5-----7-----0-------0---0-0-0-0-|-5-----7-----0---7-----8-----0---|---| 
C|-5-----7-----0-------0---0-0-0-0-|-5-----7-----0---7-----8-----0---|   | 
                       .   . . . .               .               .       | 
NO!                                  I'm not ready to...                 | x2 
                                                                         | 
   1   &   2   &   3   &   4   &     1   &   2   &   3   &   4   &       | 
D|---------------------------------|---------------------------------|   | 
A|---------------------------------|-6---6---6---6---5---5---5---5---|---| 
F|---------------------------------|-5---5---5---5---5---5---5---5---| 
C|-5-----7-----3~~~~~~~~~~~~~~~~~~~|-3---3---3---3---3---3---3---3---| 
G|-5-----7-----3~~~~~~~~~~~~~~~~~~~|-3---3---3---3---3---3---3---3---| 
C|-5-----7-----3~~~~~~~~~~~~~~~~~~~|-3---3---3---3---3---3---3---3---| 

...let you goooooooo 

Guitar 2 

   1   &   2   &   3   &   4   &     1   &   2   &   3   &   4   &    
D|---------------------------------|---------------------------------| 
A|---------------------------------|---------------------------------| 
F|---------------------------------|---------------------------------| 
C|-5-----7-----0-------------------|-5-----7---------7-----8---------| 
G|-5-----7-----0-------0---0-0-0-0-|-5-----7-----0---7-----8-----0---|---| 
C|-5-----7-----0-------0---0-0-0-0-|-5-----7-----0---7-----8-----0---|   | 
                       .   . . . .               .               .       | 
NO!                                  I'm not ready to...                 | x2 
                                                                         | 
   1   &   2   &   3   &   4   &     1   &   2   &   3   &   4   &       | 
D|---------------------------------|---------------------------------|   | 
A|---------------------------------|---------------------------------|---| 
F|---------------------------------|---------------------------------| 
C|-5-----7-----3~~~~~~~~~~~~~~~~~~~|(3)------------------------------| 
G|-5-----7-----3~~~~~~~~~~~~~~~~~~~|(3)------------------------------| 
C|-5-----7-----3~~~~~~~~~~~~~~~~~~~|(3)------------------------------| 

...let you goooooooo 


Chorus (1:13 - 1:28) 

Guitar 1 

   1   &   2   &   3   &   4   &     1   &   2   &   3   &   4   &    
D|---------------------------------|---------------------------------| 
A|---------------------------------|---------------------------------| 
F|---------------------------------|---------------------------------| 
C|-0~------------------------------|(0)------------------------------| 
G|-0~------------------------------|(0)------------------------------| 
C|-0~------------------------------|(0)------------------------------| 

These are our times,                Never forget 

   1   &   2   &   3   &   4   &     1   &   2   &   3   &   4   &    
D|---------------------------------|---------------------------------| 
A|---------------------------------|---------------------------------| 
F|---------------------------------|-5~------------------------------| 
C|-3~------------------------------|-5~------------------------------| 
G|-3~------------------------------|-3~------------------------------| 
C|-3~------------------------------|---------------------------------| 

No looking back                      No more regrets 

   1   &   2   &   3   &   4   &     1   &   2   &   3   &   4   &    
D|---------------------------------|---------------------------------| 
A|---------------------------------|---------------------------------| 
F|---------------------------------|---------------------------------| 
C|-0~------------------------------|(0)------------------------------| 
G|-0~------------------------------|(0)------------------------------| 
C|-0~------------------------------|(0)------------------------------| 

One thing we learned                From our mistakes 

   1   &   2   &   3   &   4   &     1   &   2   &   3   &   4   &    
D|---------------------------------|---------------------------------| 
A|---------------------------------|---------------------------------| 
F|-3~------------------------------|-5~------------------------------| 
C|-3~------------------------------|-5~------------------------------| 
G|-1~------------------------------|-3~------------------------------| 
C|---------------------------------|---------------------------------| 

The harder the heart...              The harder it breaks. 

Guitar 2 

   1   &   2   &   3   &   4   &     1   &   2   &   3   &   4   &    
D|-------------8~~~~~~~~~~~~~~~8~~~|~~~~~~~~~~~~~8~~~~~~~~~~~~~~~8~~~| 
A|-------6~~~~~~~~~~~~~~~6~~~~~~~~~|~~~~~~~6~~~~~~~~~~~~~~~6~~~~~~~~~| 
F|-7~~~~~~~~~~~~~~~7~~~~~~~~~~~~~~~|~7~~~~~~~~~~~~~~~7~~~~~~~~~~~~~~~| 
C|---------------------------------|---------------------------------| 
G|---------------------------------|---------------------------------| 
C|---------------------------------|---------------------------------| 

These are our times,                Never forget 

   1   &   2   &   3   &   4   &     1   &   2   &   3   &   4   &    
D|-------------8~~~~~~~~~~~~~~~8~~~|~~~~~~~~~~~~~8~~~~~~~~~~~~~~~8~~~| 
A|-------6~~~~~~~~~~~~~~~6~~~~~~~~~|~~~~~~~6~~~~~~~~~~~~~~~6~~~~~~~~~| 
F|~9~~~~~~~~~~~~~~~9~~~~~~~~~~~~~~~|~5~~~~~~~~~~~~~~~5~~~~~~~~~~~~~~~| 
C|---------------------------------|---------------------------------| 
G|---------------------------------|---------------------------------| 
C|---------------------------------|---------------------------------| 

No looking back                      No more regrets 

   1   &   2   &   3   &   4   &     1   &   2   &   3   &   4   &    
D|-------------8~~~~~~~~~~~~~~~8~~~|~~~~~~~~~~~~~8~~~~~~~~~~~~~~~8~~~| 
A|-------6~~~~~~~~~~~~~~~6~~~~~~~~~|~~~~~~~6~~~~~~~~~~~~~~~6~~~~~~~~~| 
F|~7~~~~~~~~~~~~~~~7~~~~~~~~~~~~~~~|~7~~~~~~~~~~~~~~~7~~~~~~~~~~~~~~~| 
C|---------------------------------|---------------------------------| 
G|---------------------------------|---------------------------------| 
C|---------------------------------|---------------------------------| 

One thing we learned                From our mistakes 

   1   &   2   &   3   &   4   &     1   &   2   &   3   &   4   &    
D|-------------8~~~~~~~~~~~~~~~8~~~|~~~~~~~~~~~~~8~~~~~~~~~~~~~~~8~~~| 
A|-------6~~~~~~~~~~~~~~~6~~~~~~~~~|~~~~~~~6~~~~~~~~~~~~~~~6~~~~~~~~~| 
F|~9~~~~~~~~~~~~~~~9~~~~~~~~~~~~~~~|~5~~~~~~~~~~~~~~~5~~~~~~~~~~~~~~~| 
C|---------------------------------|---------------------------------| 
G|---------------------------------|---------------------------------| 
C|---------------------------------|---------------------------------| 

The harder the heart...              The harder it breaks. 


Pre-Verse (1:28 - 1:42) - Repeat the intro with the respective guitars. Guitar 3 is not played here. 

verse 2 (1:42 - 1:57) - Same as verse 1, although you don't play the last half anymore, it goes straight into 
                        the Pre-Chorus. 

Pre-Chorus (1:57 - 2:11) 

Chorus (2:11 - 2:25) 


Bridge (2:25 - 2:54) 

Guitar 1 

   1   &   2   &   3   &   4   &     1   &   2   &   3   &   4   &    
D|---------------------------------|---------------------------------| 
A|---------------------------------|---------------------------------| 
F|---------------------------------|---------------------------------| 
C|---------------------------------|---------------------------------| 
G|-8-8-8-8-8-8-8-8-8-8-8-8-8-8-8-8-|-5-5-5-5-5-5-5-5-5-5-5-5-5-5-5-5-|---| 
C|---------------------------------|---------------------------------|   | 
   . . . . . . . . . . . . . . . .   . . . . . . . . . . . . . . . .     | 
                                                                         | 
                                                                         | 
   1   &   2   &   3   &   4   &     1   &   2   &   3   &   4   &       | 
D|---------------------------------|---------------------------------|   | 
A|---------------------------------|---------------------------------|   | 
F|---------------------------------|---------------------------------|   | 
C|---------------------------------|---------------------------------|   | 
G|-4-4-4-4-4-4-4-4-4-4-4-4-4-4-4-4-|-4-4-4-4-4-4-4-4-4-4-4-4-4-4-4-4-|   | 
C|---------------------------------|---------------------------------|   | 
   . . . . . . . . . . . . . . . .   . . . . . . . . . . . . . . . .     | 
   I'm not ready to let you gooooo...                                    | 
                                                                         | x2 
   1   &   2   &   3   &   4   &     1   &   2   &   3   &   4   &       | 
D|---------------------------------|---------------------------------|   | 
A|---------------------------------|---------------------------------|   | 
F|---------------------------------|---------------------------------|   | 
C|---------------------------------|---------------------------------|   | 
G|-8-8-8-8-8-8-8-8-8-8-8-8-8-8-8-8-|-5-5-5-5-5-5-5-5-7-7-7-7-7-7-7-7-|   | 
C|---------------------------------|---------------------------------|   | 
   . . . . . . . . . . . . . . . .   . . . . . . . . . . . . . . . .     | 
                                                                         | 
                                                                         | 
   1   &   2   &   3   &   4   &     1   &   2   &   3   &   4   &       | 
D|---------------------------------|---------------------------------|   | 
A|---------------------------------|---------------------------------|---| 
F|---------------------------------|---------------------------------| 
C|---------------------------------|---------------------------------| 
G|-4-4-4-4-4-4-4-4-4-4-4-4-4-4-4-4-|-4-4-4-4-4-4-4-4-4-4-4-4-4-4-4-4-| 
C|---------------------------------|---------------------------------| 
   . . . . . . . . . . . . . . . .   . . . . . . . . . . . . . . . . 
   You need to hear this so you know... 

Guitar 2 

   1   &   2   &   3   &   4   &     1   &   2   &   3   &   4   &    
D|---------------------------------|---------------------------------| 
A|---------------------------------|---------------------------------| 
F|-10101010101010101010101010101010|-7-7-7-7-7-7-7-7-7-7-7-7-7-7-7-7-| 
C|---------------------------------|---------------------------------| 
G|---------------------------------|---------------------------------|---| 
C|---------------------------------|---------------------------------|   | 
   . . . . . . . . . . . . . . . .   . . . . . . . . . . . . . . . .     | 
                                                                         | 
                                                                         | 
   1   &   2   &   3   &   4   &     1   &   2   &   3   &   4   &       | 
D|---------------------------------|---------------------------------|   | 
A|---------------------------------|---------------------------------|   | 
F|-6-6-6-6-6-6-6-6-6-6-6-6-6-6-6-6-|-6-6-6-6-6-6-6-6-6-6-6-6-6-6-6-6-|   | 
C|---------------------------------|---------------------------------|   | 
G|---------------------------------|---------------------------------|   | 
C|---------------------------------|---------------------------------|   | 
   . . . . . . . . . . . . . . . .   . . . . . . . . . . . . . . . .     | 
   I'm not ready to let you gooooo...                                    | 
                                                                         | x2 
   1   &   2   &   3   &   4   &     1   &   2   &   3   &   4   &       | 
D|---------------------------------|---------------------------------|   | 
A|---------------------------------|---------------------------------|   | 
F|-10101010101010101010101010101010|-7-7-7-7-7-7-7-7-9-9-9-9-9-9-9-9-|   | 
C|---------------------------------|---------------------------------|   | 
G|---------------------------------|---------------------------------|   | 
C|---------------------------------|---------------------------------|   | 
   . . . . . . . . . . . . . . . .   . . . . . . . . . . . . . . . .     | 
                                                                         | 
                                                                         | 
   1   &   2   &   3   &   4   &     1   &   2   &   3   &   4   &       | 
D|---------------------------------|---------------------------------|   | 
A|---------------------------------|---------------------------------|---| 
F|-6-6-6-6-6-6-6-6-6-6-6-6-6-6-6-6-|-6-6-6-6-6-6-6-6-6-6-6-6-6-6-6-6--| 
C|---------------------------------|---------------------------------| 
G|---------------------------------|---------------------------------| 
C|---------------------------------|---------------------------------| 
   . . . . . . . . . . . . . . . .   . . . . . . . . . . . . . . . . 
   You need to hear this so you know... 


Chorus (2:54 - 3:22) - First two bars here omit the first guitar, so the second guitar is the only instrument 
                       playing. 


Outro (3:22 - 3:53) 

Guitars 1, 2 and 3 all play the intro, repeatedly. 

Guitar 4 

   1   &   2   &   3   &   4   &     1   &   2   &   3   &   4   &    
D|-12~~~~~~~~~~~~~~13~~~~~~~~~~~~~~|(13)~~~~~~~~~~~~~~~~~~~~~~~~~~~~~| 
A|---------------------------------|---------------------------------| 
F|---------------------------------|---------------------------------| 
C|---------------------------------|---------------------------------| 
G|---------------------------------|---------------------------------|---| 
C|---------------------------------|---------------------------------|   | 
                                                                         | x2 
   1   &   2   &   3   &   4   &     1   &   2   &   3   &   4   &       | 
D|-13~~~~~~~~~~~~~~12~~~~~~~~~~~~~~|(12)~~~~~~~~~~~~~~~~~~~~~~~~~~~~~|   | 
A|---------------------------------|---------------------------------|---| 
F|---------------------------------|---------------------------------| 
C|---------------------------------|---------------------------------| 
G|---------------------------------|---------------------------------| 
C|---------------------------------|---------------------------------| 

   1   &   2   &   3   &   4   &     1   &   2   &   3   &   4   &    
D|-13~~~~~~~~~~~~~~12~~~~~~~~~~~~~~|~15~~~~~~~~~~~~~~13~~~~~~~~~~~~~~| 
A|---------------------------------|---------------------------------| 
F|---------------------------------|---------------------------------| 
C|---------------------------------|---------------------------------| 
G|---------------------------------|---------------------------------| 
C|---------------------------------|---------------------------------| 

   1   &   2   &   3   &   4   &     1   &   2   &   3   &   4   &    
D|(13)~~~~~~~~~~~~~12~~~~~~~~~~~~~~|~8~~~~~~~~~~~~~~~10~~~~~~~~~~~~~~| 
A|---------------------------------|---------------------------------| 
F|---------------------------------|---------------------------------| 
C|---------------------------------|---------------------------------| 
G|---------------------------------|---------------------------------| 
C|---------------------------------|---------------------------------| 

Guitar 5 

   1   &   2   &   3   &   4   &     1   &   2   &   3   &   4   &    
D|---------------------------------|---------------------------------| 
A|---------------------------------|---------------------------------| 
F|---------------------------------|---------------------------------| x4 
C|---------------------------------|---------------------------------| 
G|---------------------------------|---------------------------------| 
C|---------------------------------|---------------------------------| 

   1   &   2   &   3   &   4   &     1   &   2   &   3   &   4   &    
D|-17~~~~~~~~~~~~~~15~~~~~~~~~~~~~~|~18~~~~~~~~~~~~~~17~~~~~~~~~~~~~~| 
A|---------------------------------|---------------------------------| 
F|---------------------------------|---------------------------------| 
C|---------------------------------|---------------------------------| 
G|---------------------------------|---------------------------------| 
C|---------------------------------|---------------------------------| 

   1   &   2   &   3   &   4   &     1   &   2   &   3   &   4   &    
D|(17)~~~~~~~~~~~~~15~~~~~~~~~~~~~~|~12~~~~~~~~~~~~~~13~~~~~~~~~~~~~~| 
A|---------------------------------|---------------------------------| 
F|---------------------------------|---------------------------------| 
C|---------------------------------|---------------------------------| 
G|---------------------------------|---------------------------------| 
C|---------------------------------|---------------------------------| 
		  

See also:

tabs Bullet for my Valentine - Tears dont fall tabs Bullet for my Valentine - Army Of Noise tabs Bullet for my Valentine - Room 409 tabs Bullet for my Valentine - Dirty Little Secret tabs Bullet for my Valentine - Alone tabs Bullet for my Valentine - Tears Don't Fall (Acoustic)
e-chords

Other versions:

tabs Bullet for my Valentine - The Harder The Heart The Harder It Breaks
auto scroll beats size up size down change color hide chords drawings
tab show chords e-chords YouTube Clip e-chords hide all tabs e-chords go to top tab

share