Bullet for my Valentine

Temper Temper

Bullet for my Valentine

tabs Expert expert

by  JOV-CORREA

save to print version add songbook text version e-mail correct tuner
chordsukulelecavacokeyboardtabbassdrumsharmonicaflute Guitar Pro
close

there isn't a video lesson for this song

chords

Temper Temper

	  		


d|---------------------------------------------------------------------------| 
A|---------------------------------------------------------------------------| 
F|---------------------------------------------------------------------------| 
C|--000000-777777--------777777-12-12-12-12-13-13-13-13----------------------| 
G|----------------888888-----------------------------------------------------| 
C|---------------------------------------------------------------------------| 

d|---------------------------------------------------------------------------| 
A|---------------------------------------------------------------------------| 
F|---------------------------------------------------------------------------| 
C|--000000-777777------------------------------------------------------------| 
G|----------------888888-7777777777-8888-------------------------------------| 
C|---------------------------------------------------------------------------| 
                              x3 



d|---------------------------------------------------------------------------| 
A|---------------------------------------------------------------------------| 
F|---------------------------------------------------------------------------| 
C|--000000-777777--------777777-12-12-12-12-13-13-13-13----------------------| 
G|----------------888888-----------------------------------------------------| 
C|---------------------------------------------------------------------------| 


d|---------------------------------------------------------------------------| 
A|---------------------------------------------------------------------------| 
F|---------------------------------------------------------------------------| 
C|--000000-777777---------7/19-----------------------------------------------| 
G|----------------888888--7/19-----------------------------------------------| 
C|------------------------7/19-----------------------------------------------| 

        *         *       * *   *       *          * 
d|---------------------------------------------------------------------------| 
A|---------------------------------------------------------------------------| 
F|---------------------------------------------------------------------------| 
C|--2-3-----3/7-3---2h3-3-0-0-0-0---2-3------3/7-3-------5-7-5----3-3-3-3----| 
G|------------------------0-0-0-0------------------------3-5-3----3-3-3-3----| 
C|-------0--------0-------0-0-0-0--------0----------0-------------3-3-3-3----| 


        *            *         * *           *         * 
d|---------------------------------------------------------------------------| 
A|---------------------------------------------------------------------------| 
F|---------------------------------------------------------------------------| 
C|--2-3-------3/7-3-----2-3-3ph----------2-3-----3/7-3-----5-7-5---3-3-3-3---| 
G|---------------------------------------------------------3-5-3---3-3-3-3---| 
C|-------0-----------0----------0-0-3ph-------0---------0----------3-3-3-3---| 


d|---------------------------------------------------------------------------| 
A|---------------------------------------------------------------------------| 
F|---------------------------------------------------------------------------| 
C|--000000-777777--------777777-12-12-12-12-13-13-13-13----------------------| 
G|----------------888888-----------------------------------------------------| 
C|---------------------------------------------------------------------------| 

d|---------------------------------------------------------------------------| 
A|---------------------------------------------------------------------------| 
F|---------------------------------------------------------------------------| 
C|--000000-777777------------------------------------------------------------| 
G|----------------888888-7777777777-8888-------------------------------------| 
C|---------------------------------------------------------------------------| 
                              x4 



d|---------------------------------------------------------------------------| 
A|---------------------------------------------------------------------------| 
F|---------------------------------------------------------------------------| 
C|--000000-777777--------777777-12-12-12-12-13-13-13-13----------------------| 
G|----------------888888-----------------------------------------------------| 
C|---------------------------------------------------------------------------| 


d|---------------------------------------------------------------------------| 
A|---------------------------------------------------------------------------| 
F|---------------------------------------------------------------------------| 
C|--000000-777777---------7/19-----------------------------------------------| 
G|----------------888888--7/19-----------------------------------------------| 
C|------------------------7/19-----------------------------------------------| 


d|-----------------------------------------------------------------------------| 
A|-----------------------------------------------------------------------------| 
F|-----------------------------------------------------------------------------| 
C|-5-7-10-7-5-7-7-0-0-0-0--5-7-10-7-5-7-5-3-3-3-3------------------------------| 
G|--3-5-8-5-3-5-5-0-0-0-0---3-5-8-5-3-5-3-3-3-3-3------------------------------| 
C|----------------0-0-0-0-----------------3-3-3-3------------------------------| 
                                    * 
d|-----------------------------------------------------------------------------| 
A|-----------------------------------------------------------------------------| 
F|-------------------------------------88888888888810101010--------------------| 
C|-5-7-10-7-5-7-7-0-0-0-0--5-7-10-7-7--xxxxxxxxxxxxxxxx------------------------| 
G|--3-5-8-5-3-5-5-0-0-0-0---3-5-8-5-5--6666666666668888------------------------| 
C|----------------0-0-0-0------------------------------------------------------| 

d|---------------------------------------------------------------------------| 
A|---------------------------------------------------------------------------| 
F|---------------------------------------------------------------------------| 
C|--000000-777777--------777777-12-12-12-12-13-13-13-13----------------------| 
G|----------------888888-----------------------------------------------------| 
C|---------------------------------------------------------------------------| 

d|---------------------------------------------------------------------------| 
A|---------------------------------------------------------------------------| 
F|---------------------------------------------------------------------------| 
C|--000000-777777------------------------------------------------------------| 
G|----------------888888-7777777777-8888-------------------------------------| 
C|---------------------------------------------------------------------------| 
                              x4 



d|---------------------------------------------------------------------------| 
A|---------------------------------------------------------------------------| 
F|---------------------------------------------------------------------------| 
C|--000000-777777--------777777-12-12-12-12-13-13-13-13----------------------| 
G|----------------888888-----------------------------------------------------| 
C|---------------------------------------------------------------------------| 


d|---------------------------------------------------------------------------| 
A|---------------------------------------------------------------------------| 
F|---------------------------------------------------------------------------| 
C|--000000-777777---------7/19-----------------------------------------------| 
G|----------------888888--7/19-----------------------------------------------| 
C|------------------------7/19-----------------------------------------------| 



d|-----------------------------------------------------------------------------| 
A|-----------------------------------------------------------------------------| 
F|-----------------------------------------------------------------------------| 
C|-5-7-10-7-5-7-7-0-0-0-0--5-7-10-7-5-7-5-3-3-3-3------------------------------| 
G|--3-5-8-5-3-5-5-0-0-0-0---3-5-8-5-3-5-3-3-3-3-3------------------------------| 
C|----------------0-0-0-0-----------------3-3-3-3------------------------------| 
                                    * 
d|-----------------------------------------------------------------------------| 
A|-----------------------------------------------------------------------------| 
F|-------------------------------------888810101010----------------------------| 
C|-5-7-10-7-5-7-7-0-0-0-0--5-7-10-7-7--xxxxxxxx----------0---------------------| 
G|--3-5-8-5-3-5-5-0-0-0-0---3-5-8-5-5--66668888----------0---------------------| 
C|----------------0-0-0-0--------------------------------0---------------------| 



d|---------------------------------------------------------------------------| 
A|---------------------------------------------------------------------------| 
F|---------------------------------------------------------------------------| 
C|--000000-777777--------777777-12-12-12-12-13-13-13-13----------------------| 
G|----------------888888-----------------------------------------------------| 
C|---------------------------------------------------------------------------| 

d|---------------------------------------------------------------------------| 
A|---------------------------------------------------------------------------| 
F|---------------------------------------------------------------------------| 
C|--000000-777777------------------------------------------------------------| 
G|----------------888888-7777777777-8888-------------------------------------| 
C|---------------------------------------------------------------------------| 
                              x3 




d|---------------------------------------------------------------------------| 
A|---------------------------------------------------------------------------| 
F|---------------------------------------------------------------------------| 
C|--000000-777777--------777777-12-12-12-12-13-13-13-13----------------------| 
G|----------------888888-----------------------------------------------------| 
C|---------------------------------------------------------------------------| 


d|---------------------------------------------------------------------------| 
A|---------------------------------------------------------------------------| 
F|---------------------------------------------------------------------------| 
C|--000000-777777-----------------------7/19---------------------------------| 
G|----------------8888-7777777777777777-7/19---------------------------------| 
C|--------------------------------------7/19---------------------------------| 



d|-----------------------------------------------------------------------------| 
A|-----------------------------------------------------------------------------| 
F|-----------------------------------------------------------------------------| 
C|-5-7-10-7-5-7-7-0-0-0-0--5-7-10-7-5-7-5-3-3-3-3------------------------------| 
G|--3-5-8-5-3-5-5-0-0-0-0---3-5-8-5-3-5-3-3-3-3-3------------------------------| 
C|----------------0-0-0-0-----------------3-3-3-3------------------------------| 
                                    * 
d|-----------------------------------------------------------------------------| 
A|-----------------------------------------------------------------------------| 
F|-------------------------------------888810101010----------------------------| 
C|-5-7-10-7-5-7-7-0-0-0-0--5-7-10-7-7--xxxxxxxx--------------------------------| 
G|--3-5-8-5-3-5-5-0-0-0-0---3-5-8-5-5--66668888--------------------------------| 
C|----------------0-0-0-0------------------------------------------------------| 


d|-----------------------------------------------------------------------------| 
A|-----------------------------------------------------------------------------| 
F|-----------------------------------------------------------------------------| 
C|-5-7-10-7-5-7-7-0-0-0-0--5-7-10-7-5-7-5-3-3-3-3------------------------------| 
G|--3-5-8-5-3-5-5-0-0-0-0---3-5-8-5-3-5-3-3-3-3-3------------------------------| 
C|----------------0-0-0-0-----------------3-3-3-3------------------------------| 
                                    * 
d|-----------------------------------------------------------------------------| 
A|-----------------------------------------------------------------------------| 
F|-------------------------------------88888888888810101010--------------------| 
C|-5-7-10-7-5-7-7-0-0-0-0--5-7-10-7-7--xxxxxxxxxxxxxxxx------------------------| 
G|--3-5-8-5-3-5-5-0-0-0-0---3-5-8-5-5--6666666666668888------------------------| 
C|----------------0-0-0-0------------------------------------------------------| 

d|-----------------------------------------------------------------------------| 
A|-----------------------------------------------------------------------------| 
F|-----------------------------------------------------------------------------| 
C|------------------------------------------0----------------------------------| 
G|-------------------------------5555-6666--0----------------------------------| 
C|--000000-777777-3333-7777-3333------------0----------------------------------|  
		  

See also:

tabs Bullet for my Valentine - Tears dont fall tabs Bullet for my Valentine - Army Of Noise tabs Bullet for my Valentine - Room 409 tabs Bullet for my Valentine - Dirty Little Secret tabs Bullet for my Valentine - Alone tabs Bullet for my Valentine - Tears Don't Fall (Acoustic)
e-chords

Other versions:

tabs Bullet for my Valentine - Temper Temper
auto scroll beats size up size down change color hide chords drawings
tab show chords e-chords YouTube Clip e-chords hide all tabs e-chords go to top tab

share