Bullet for my Valentine

Spit you out

Bullet for my Valentine

tabs Expert expert

by  EUROPEU

save to print version add songbook text version e-mail correct tuner
chordsukulelecavacokeyboardtabbassdrumsharmonicaflute Guitar Pro
close

there isn't a video lesson for this song

chords

Spit you out

	  		Tuning; CGCFAD 
Intro 
===== 
Guitar 1 
----------------------| 
----------------------| 
-9--10---9--10---9-10-| x16 
----------------------| 
----------------------| 
----------------------| 
 
Guitar 2 
----------------------| 
----------------------| 
-----3---5----3-------| 
-0---3---5----3---3-1-| x4 
-0---1---3----1---3-1-| 
-0----------------3-1-| 
 
Intro 2 
======= 
--------------------------| 
--------------------------| 
--------------------------| 
--------------------------| 
-3h5-3h5-3h5-3h5--5p3p0---| 
------------------------0-| 
 
Verse 
===== 
-------------------------------------------------------------| 
-------------------------------------------------------------| 
-------------------------------------------------------------| 
-------------------------------------------------------------| 
-3-3h5--3-3-3h5--3-3h5--3h5-3h5-3h5---3-3h5--3-3-3h5-3h5--5~-| 
-------------------------------------------------------------| 
 
--------------------------------------------------------------| 
--------------------------------------------------------------| 
--------------------------------------------------------------| 
--------------------------------------------------------------| 
-3-5--3-5--33--3-5--3--3h5-3h5--3-5--3-5--33--3-5--3--3h5-3h5-| 
--------------------------------------------------------------| 
 
 
Pre-Chorus 
========== 
------------------------| 
------------------------| 
-3----5----7------------| 
-3----5----7--000000000-| 
-1----3----5--000000000-| 
--------------000000000-| 
              xxxxxxxxx 
 
---------------------------------------| 
---------------------------------------| 
-3----5----7---------------------------| 
-3----5----7----10-10-9-----10-10-9----| 
-1----3----5------------12----------12-| 
---------------------------------------| 
 
------------------------| 
------------------------| 
-3----5----7------------| 
-3----5----7--000000000-| 
-1----3----5--000000000-| 
--------------000000000-| 
              xxxxxxxxx 
 
--------------------------| 
--------------------------| 
-3----5----7~-*-----------| 
-3----5----7~-------------|pickslide* 
-1----3----5~-*-----------| 
--------------------------| 
 
Chorus 
====== 
-----8--------------------8---------------------------| 
-5-6---6-5-6-3--/6/---5-6---6-5-6-----5--6--5-6h8p6p5-| 
-----------------------------------3------------------| 
------------------------------------------------------| 
------------------------------------------------------| 
------------------------------------------------------| 
 
-----8--------------------8-------------------| 
-5-6---6-5-6-3--/6/---5-6---6-5-6-----5--6--8-| 
-----------------------------------3----------| 
----------------------------------------------| 
----------------------------------------------| 
----------------------------------------------| 
 
Intro 2 
 
Verse 2 
======= 
-------------------------------------------------------------| 
-------------------------------------------------------------| 
-------------------------------------------------------------| 
-------------------------------------------------------------| 
-3-3h5--3-3-3h5--3-3h5--3h5-3h5-3h5---3-3h5--3-3h5-3-3h5--5~-| 
-------------------------------------------------------------| 
 
--------------------------------------------------------------| 
--------------------------------------------------------------| 
--------------------------------------------------------------| 
--------------------------------------------------------------| 
-3-5--3-5--33--3-5--3--3h5-3h5--3-5--3-5--33--3-5--3--3h5-3h5-| 
--------------------------------------------------------------| 
 
Pre-Chorus 
Chorus 
 
Bridge 
====== 
-----------------------------| 
-----------------------------| 
-7~----------7~--------------| 
-7~-00000000-7~-----------10-| 
-5~-00000000-5~-----------10-| 
----00000000----000000000-10-| 
 
----------------------------------------------------------------| 
--------------------11-10-7-8-----------------------------------| 
-2--3--5-3-2-3~-2-3-----------2--3--5-3-2-3~--------------------| x2 
----------------------------------------------8888888-3333-1111-| 
----------------------------------------------8888888-3333-1111-| 
----------------------------------------------8888888-3333-1111-| 
 
Bridge 2 x2 
======== 
----------------------------------------------------| 
----------------------------------------------------| 
----------------------------------------------------| 
----------------------------------------------------| 
-00--00---00-----00--00-----------------------------| 
-00--00---00-----00--00--8h10p8h10p8h10p7h8p7h8p7h8-| 
 
Bass Solo / Live Talking Bit 
 
Bridge 3 
======== 
---------------------------------| 
---------------------------------| 
-10-9----7---10-9----7---10-9----| 
------10----------10----------10-| 
---------------------------------| 
---------------------------------| 
 
Pre-Chorus 
 
Outro 
===== 
--------------------------------------------------------------| 
--------------------------------------------------------------| 
--------------------------------------------------------------| 
--------------------------------------------------------------| 
-3-5--3-5--3-3--3-5--3-3h5-3h5--3-5--3-5--3-3--3-5--3-3h5-3h5-| 
--------------------------------------------------------------| 
 
Guitar 1 
---------------------------------------------------------------------| 
---------------------------------------------------------------------| 
---------------------------------------------------------------------| 
---------------------------------------------------------------------| 
-3h5-5------------3h5-5-3-3h5-3h5--3h5-5--3--5--3-3-3h5--5--3-3h5-5*-| 
-------0-2-//12//----------------------------------------------------| 
 
Guitar 2 
---------------------------------------------------| 
---------------------------------------------------| 
----------CANT FIGURE THIS LITTLE RUN OUT----------| 
-------------HELP WOULD BE APPRECIATED-------------| 
---------------------------------------------------| 
---------------------------------------------------| 
 
 
----------------------------| 
----------------------------| 
----------------------------| 
--------------------------0-| 
--------3----5-3-1h3p1-0--0-| 
-00-1-0---00--------------0-| 
  
  
 

		  

See also:

tabs Bullet for my Valentine - Tears dont fall tabs Bullet for my Valentine - Army Of Noise tabs Bullet for my Valentine - Room 409 tabs Bullet for my Valentine - Dirty Little Secret tabs Bullet for my Valentine - Alone tabs Bullet for my Valentine - Tears Don't Fall (Acoustic)
e-chords

Other versions:

tabs Bullet for my Valentine - Spit you out
auto scroll beats size up size down change color hide chords drawings
tab show chords e-chords YouTube Clip e-chords hide all tabs e-chords go to top tab

share