Bullet for my Valentine

Scream, Aim, Fire

Bullet for my Valentine

tabs Advanced advanced

by  VICTBORGES

save to print version add songbook text version e-mail correct tuner
chordsukulelecavacokeyboardtabbassdrumsharmonicaflute Guitar Pro
close

there isn't a video lesson for this song

chords

Scream, Aim, Fire

	  		Intro : 

Gtr1 Dist. (Matt Tuck) 

D|----------------------------------------------------------------| 
A|----------------------------------------------------------------| 
F|----------------------------------------------------------------| 
C|-5-----4-5----------4-5-7-5-4---4-----5-4-----------7~~~5~~~----| 
G|------------------------------7---------------------------------| 
D|---0-0-----0-0-0-0-0--------------0-0-----0-0-0-0-0-------------| 

D|----------------------------------------------------------------| 
A|----------------------------------------------------------------| 
F|-------------------------------------------------7--------------| 
C|---5-----5-----5-----5-----5-----------5----5----7--------------|    2x 
G|-3---3-3---3-3---3-3---3-3---3-3-------5----5----5--------------| 
D|---------------------------------------3----3-------------------| 

Gtr2 Dist. (Padge) 
D|-----------------------------------------------------------------| 
A|-----------------------------------------------------------------| 
F|-----------------------------------------------------------------| 
C|-9-----7-9-----------7-9-10-9-7----7-----9-7-----------10~~~9~~~-| 
G|--------------------------------10-------------------------------| 
D|---7-7-----7-7-7-7-7-----------------7-7-----7-7-7-7-7-----------| 

D|----------------------------------------------------------------| 
A|----------------------------------------------------------------| 
F|-999-111111-121212-141414-999-111111-121212-7-------------------| 
C|----------------------------------------------------------------|   2x 
G|----------------------------------------------------------------| 
D|----------------------------------------------------------------| 

Gtr3 Dist. 

D|----------------------------------------------------------------| 
A|----------------------------------------------------------------| 
F|----------------------------------------------------------------| 
C|-222-444-555-777-222-444-555-000--------------------------------|   2x 
G|----------------------------------------------------------------| 
D|----------------------------------------------------------------| 

Pre-verse : 
D|---------------------------------------------------------------| 
A|---------------------------------------------------------------| 
F|---------------------------------------------------------------| 
C|-2-------------------------------------------------------------| 
G|-2------\\\\\\\\\\\\\\\\\\\\\\\\\\\\\\\\-----------------------| 
D|-0------\\\\\\\\\\\\\\\\\\\\\\\\\\\\\\\\-----------------------| 
			Pick scrape 

Verse : 
D|---------------------------------------------------------------| 
A|---------------------------------------------------------------| 
F|---------------------------------------------------------------| 
C|-2--22222---2--22222---2--22222---2?22222----7~~~5~~~----------| 
G|-2--22222---2--22222---2--22222---2?22222----------------------| 
D|-0--00000---0--00000---0--00000---0?00000----------------------| 

D|---------------------------------------------------------------| 
A|---------------------------------------------------------------| 
F|------------------------5---4----------------------------------| 
C|-7--77777---7--77777----5---4----------------------------------|  2x 
G|-7--77777---7--77777----3---2----------------------------------| 
D|-5--55555---5--55555-------------------------------------------| 

Pre chorus: 

D|---------------------------------------------------------------| 
A|---------------------------------------------------------------| 
F|----------------------------------------7----------------------| 
C|-2----------------------2-2----------5--7----------------------| X4 
G|-2?5p7-5p7-----5p7-5p7--2-2-5p7p5p0--5--5----------------------| 
D|-0---------0-0----------0-0----------3-------------------------| 

Chorus: 

Gtr1 Dist. (Matt Tuck) 

D|---------------------------------------------------------------| 
A|---------------------------------------------------------------| 
F|---------------------------------------------------------------| 
C|-5-----4-5----------4-5-7-5-4---4-----5-4-----------7~~~5~~~---| 
G|------------------------------7--------------------------------| 
D|---0-0-----0-0-0-0-0--------------0-0-----0-0-0-0-0------------| 

D|---------------------------------------------------------------| 
A|---------------------------------------------------------------| 
F|-------------------------------------------------7-------------| 
C|---5-----5-----5-----5-----5-----------5----5----5-------------| 2x 
G|-3---3-3---3-3---3-3---3-3---3-3-------5----5----5-------------| 
D|---------------------------------------3----3------------------| 

Gtr2 Dist. (Padge) 

D|-----------------------------------------------------------------| 
A|-----------------------------------------------------------------| 
F|-----------------------------------------------------------------| 
C|-9-----7-9-----------7-9-10-9-7----7-----9-7-----------10~~~9~~~-| 
G|--------------------------------10-------------------------------| 
D|---7-7-----7-7-7-7-7-----------------7-7-----7-7-7-7-7-----------| 

D|----------------------------------------------------------------| 
A|----------------------------------------------------------------| 
F|-------------------------------------------------7--------------| 
C|---9-----9-----9-----9-----9-----------5----5----7--------------| 2x 
G|---------------------------------------5----5----5--------------| 
D|-7---7-7---7-7---7-7---7-7---7-7-------3----3-------------------| 

Verse 
Pre-chorus 
Chorus 

Bridge: 

D|------------------------------------------------------------------------| 
A|------------------------------------------------------------------------| 
F|---------------------------------------------------------------------5--| 
C|---2-----------------------22222222222222222-22222222222222222?-5-5?-5--| 
G|---2--\\\\\\\\\\\\\\\\\\---22222222222222222-22222222222222222?-5-5--3--| 
D|---0---\\\\\\\\\\\\\\\\\\--00000000000000000-00000000000000000?-3-3-----| 
	    Pick scrape 

D|-------------------------------------------------------------------| 
A|-------------------------------------------------------------------| 
F|------------------------------------------------5--4---------------| 
C|-22222222222222222------22222222222222222--5-5--5--4---------------| 
G|-22222222222222222?-3*--22222222222222222--5-5--3--2---------------| 
D|-00000000000000000------00000000000000000?-3-3---------------------| 

Solo (wah) 

D|----------15-12-14-12-15-12-17--12-15-12-14-12-15-12-17-12-17b-15--------| 
A|-------------------------------------------------------------------------| 
F|-14b-12b-----------------------------------------------------------------| 
C|-------------------------------------------------------------------------| 
G|-------------------------------------------------------------------------| 
D|-------------------------------------------------------------------------| 

D|----------15-19-15----------15-19-15-----------14-17-14----------14-17-14-| 
A|-17----17----------17----17----------17-----16----------16----16----------| 
F|----16----------------16-----------------14----------------14-------------| 
C|--------------------------------------------------------------------------| 
G|--------------------------------------------------------------------------| 
D|--------------------------------------------------------------------------| 

D|----19-17----17----19-17-----------19-17-19----19-17-19------------------| 
A|-17-------20----17-------20-19--17----------20----------17-15-17-19-20b--| 
F|-------------------------------------------------------------------------| 
C|-------------------------------------------------------------------------| 
G|-------------------------------------------------------------------------| 
D|-------------------------------------------------------------------------| 

D|------------------------------------------------------------12-14-15-17--| 
A|---TAPPING???--------------------------------------12-14-15--------------| 
F|------------------------------------------12-14-16-----------------------| 
C|---------------------------------12-14-16--------------------------------| 
G|------------------------12-14-15-----------------------------------------| 
D|---------------12-14-15--------------------------------------------------| 

Outro : 

D|--------------------------------------------------------------------------| 
A|--------------------------------------------------------------------------| 
F|---------------------------------------------------------------------5----| 
C|---2-----------------------22222222222222222-22222222222222222?-5-5?-5----| 
G|---2--\\\\\\\\\\\\\\\\\\---22222222222222222-22222222222222222?-5-5--3----| 
D|---0---\\\\\\\\\\\\\\\\\\--00000000000000000-00000000000000000?-3-3-------| 
	    Pick scrape 

D|---------------------------------------------------------| 
A|---------------------------------------------------------| 
F|------------------------------------------------5--4-----| 
C|-22222222222222222------22222222222222222--5-5--5--4-----| 
G|-22222222222222222?-3*--22222222222222222--5-5--3--2-----| 
D|-00000000000000000------00000000000000000?-3-3-----------| 
		  

See also:

tabs Bullet for my Valentine - Tears dont fall tabs Bullet for my Valentine - Army Of Noise tabs Bullet for my Valentine - Room 409 tabs Bullet for my Valentine - Dirty Little Secret tabs Bullet for my Valentine - Alone tabs Bullet for my Valentine - Tears Don't Fall (Acoustic)
e-chords

Other versions:

tabs Bullet for my Valentine - Scream, Aim, Fire
auto scroll beats size up size down change color hide chords drawings
tab show chords e-chords YouTube Clip e-chords hide all tabs e-chords go to top tab

share