Bullet for my Valentine

No control

Bullet for my Valentine

tabs Expert expert

by  RAMON BORGES

save to print version add songbook text version e-mail correct tuner
chordsukulelecavacokeyboardtabbassdrumsharmonicaflute Guitar Pro
close

there isn't a video lesson for this song

chords

No control

	  		Afinašao: CGCFAD 
 
Riff 1                           
--------------------------------------| 
--------------------------------------| 
--------------------------------------| 3x 
--------------10-------5-----5/7\5/7--| 
--0-0-0-0-0-0--8--0-0--3-----3/5\3/5--| 
--0-0-0-0-0-0-----0-0-----------------| 
  x x x x x x     x x 
 
Riff 2                                    
--------------------------------------| 
-----------------------------5--------| 
-----------------------------5h7p5h7--|  
--------------10-------5--------------| 
--0-0-0-0-0-0--8-------3--------------| 
--0-0-0-0-0-0-----0-0-----------------| 
  x x x x x x     x x 
                   
Riff 3       
-----------------------------------------------------| 
-----------------------------------------------------| 
-----------------------------------------------------| 
------0-----0-----0-----0----10-------5-----5/7\5/7--| 
------0-----0-----0-----0-----8--0-0--3-----3/5\3/5--| 
--0-0---0-0---0-0---0-0---0-0----0-0-----------------| 
  x x   x x   x x   x x   x x    x x 
 
Riff 4 
---------------------------------------------------------| 
---------------------------------------------------------| 
---------------------------------------------------------| 
-------0--------0--------0--------0-10-----5----5/7\5/7--| 
-------0--------0--------0--------0--8-0-0-3----3/5\3/5--| 
--000000---000000---000000---000000----0-0---------------| 
  xxxxxx   xxxxxx   xxxxxx   xxxxxx    x x 
 
Riff 5 
-----------------------------------------| 
-----------------------------------------| 
-----------------------------------------| 
----0-5/7\5/7---0-5/7\5/7---0-5/7\5/7----| 
----0-3/5\3/5---0-3/5\3/5---0-3/5\3/5----| 
--000---------000---------000------------| 
  xxx         xxx         xxx 
Riff 6 
----------------| 
----------------| 
----------------| 
--5-4-3-0-5-4---| 
--3-2-1-0-3-2---| 
----------------| 
 
 
-----------------------------------------| 
-----------------------------------------| 
-----------------------------------------| 
----0-5/7\5/7---0-5/7\5/7---0-5/7\5/7----| 
----0-3/5\3/5---0-3/5\3/5---0-3/5\3/5----| 
--000---------000---------000------------| 
  xxx         xxx         xxx 
 
Riff 7 
-----------------------------------------------| 
-----------------------------------------------| 
-----------------------------------------------| 
--3-3-3-3-3------8--------10-------8-------10--| 
--3-3-3-3-3------8--------10-------8-------10--| 
--3-3-3-3-3------8--------10-------8-------10--| 
  x x x x x 
 
Repete 
Riff 8 
----------------------| 
----------------------| 
----------------------| 
---8---10---8---10----| 
---8---10---8---10----| 
---8---10---8---10----| 
 
Riff 9 
-----------------------------| 
-----------------------------| 
-----------------------------| 
--0x----0x0x---0-0-----------| 
--0x----0x0x---0-0-2-3-2-1~--| 
--0x----0x0x---0-0-----------| 
 
Riff 10 
------------------------------------------| 
------------------------------------------| 
------------------------------------------| 
--0x----0x0x---x-x-x-x-x--0x0x------------| 
--0x----0x0x---x-x-x-x-x--0x0x-2-3-2-1~---| 
--0x----0x0x---x-x-x-x-x--0x0x------------| 
                
Riff 11 
-----------------------------| 
-----------------------------| 
-----------------------------| 
--0x----0x0x---0-0-----------| 
--0x----0x0x---0-0-2-3-2-1~--| 
--0x----0x0x---0-0-----------| 
 
Riff 12 
--------------------------------| 
--------------------------------| 
--------------------------------| 
--0x----0x0x---x-x-x-x-x--0x0x--| 
--0x----0x0x---x-x-x-x-x--0x0x--| 
--0x----0x0x---x-x-x-x-x--0x0x--| 
               
 
Riff 13 
---------------------------------------------| 
---------------------------------------------| 
---------------------------------------------| 
--3-2------2-2-3h5p3-2-3--3-2----3-------5^--| 
------3--3--------------------3-----3-0-0----| 
--------------------------------------0-0----| 
                                      x x 
Riff 14 
---------------------------------------------| 
---------------------------------------------| 
---------------------------------------------| 
--3-2------2-2-3h5p3-2-3--3-2----3-----------| 
------3--3--------------------3-----3-0-0-5^-| 
--------------------------------------0-0----| 
                                      x x 
Riff 15 
--------------------------------------| 
--------------------------------------| 
--------------------------------------| 
--3-2------2-2-3h5p3-2-3--3-2---3-2---| 
------3--3--------------------3-------| 
--------------------------------------| 
Riff 16 
--------------------------------------| 
--------------------------------------| 
--------------------------------------| 
--3-2------2-2-3h5p3-2-3--3-2----3----| 
------3--3--------------------3-----3-| 
--------------------------------------| 
 
Riff 17 
--------------------------------------| 
--------------------------------------| 
--------------------------------------| Abafando tudo 
--3-2------2-2-3h5p3-2-3--3-2----3----| 
------3--3--------------------3-----3-| 
--------------------------------------| 
  xxxxxxxxxxxxxxxxxxxxxxxxxxxxxxxxxxx 
 
 
Repete Riff 8 
 
Riff 18 
----------------------------------| 
----------------------------------| 
---10-----12-----10------10-------| 
----------------------------------| 
----8-----10-----8-------10-------| 
----------------------------------| 
 
Repete Riff 5 
       Riff 6 
       Riff 5 
       Riff 6 
 
Riff 19 
----------------------------------------| 
----------------------------------------| 
----------------------------------------| 
------6-5-6^------8-7-8^-----11-10-11^--| 
--0-0--------0-0---------0-0------------| 
--0-0--------0-0---------0-0------------| 
      x x x       x x x       x  x  x 
 
Riff 20 
---------------| 
---------------| 
---------------| 
--0-0-0-0-0-0--| 
--0-0-0-0-0-0--| 
--0-0-0-0-0-0--| 
  x x x x x  
 
Repete Riff 15 
       Riff 16 
       Riff 20 
       Riff 15 
       Riff 16 
       Riff 20 
 
 

		  

See also:

tabs Bullet for my Valentine - Tears dont fall tabs Bullet for my Valentine - Army Of Noise tabs Bullet for my Valentine - Room 409 tabs Bullet for my Valentine - Dirty Little Secret tabs Bullet for my Valentine - Alone tabs Bullet for my Valentine - Tears Don't Fall (Acoustic)
e-chords

Other versions:

tabs Bullet for my Valentine - No control tabs Pepper - No Control tabs Set It Off - No Control
auto scroll beats size up size down change color hide chords drawings
tab show chords e-chords YouTube Clip e-chords hide all tabs e-chords go to top tab

share