Bullet for my Valentine

Dirty Little Secret

Bullet for my Valentine

tabs Easy easy

by  ANG-LETRA

save to print version add songbook text version e-mail correct tuner
chordsukulelecavacokeyboardtabbassdrumsharmonicaflute Guitar Pro
close

there isn't a video lesson for this song

chords

Dirty Little Secret

	  		
Tuning: C G C F A D 

Guitar 1 

tarts at (00:26) 

                                         
                                                   
---------------------------------|---------------------------------| 
---------------------------------|---------------------------------| 
---------------------------------|---------------------------------| 
--0--0--L-0--L-0--0--0--0--------|--0--0--L-0--L-0--0--0--0--------| 
--0--0--L-0--L-0--0--0--0--------|--0--0--L-0--L-0--0--0--0--------| 
--0--0--L-0--L-0--0--0--0--------|--0--0--L-0--L-0--0--0--0--------| 


                                         
                                                   
---------------------------------|---------------------------------| 
---------------------------------|---------------------------------| 
---------------------------------|---------------------------------| 
--8--8--L-8--L-8--8--8--8--------|--8--8--L-8--L-8--8--8--8--------| 
--8--8--L-8--L-8--8--8--8--------|--8--8--L-8--L-8--8--8--8--------| 
--8--8--L-8--L-8--8--8--8--------|--8--8--L-8--L-8--8--8--8--------| 


                                           
                                                     
----------------------------------|----------------------------------| 
----------------------------------|----------------------------------| 
----------------------------------|----------------------------------| 
--10-10-L-10-L-10-10-10-10--------|--10-10-L-10-L-10-10-10-10--------| 
--10-10-L-10-L-10-10-10-10--------|--10-10-L-10-L-10-10-10-10--------| 
--10-10-L-10-L-10-10-10-10--------|--10-10-L-10-L-10-10-10-10--------| 


                                                  
                                                   
---------------------------------|----------------------------------------| 
---------------------------------|----------------------------------------| 
---------------------------------|----------------------------------------| 
--0--0--L-0--L-0--0--0--0--------|--0--0--L-0--L-0--0--0------------------| 
--0--0--L-0--L-0--0--0--0--------|--0--0--L-0--L-0--0--0------------------| 
--0--0--L-0--L-0--0--0--0--------|--0--0--L-0--L-0--0--0--0-0-0-0-0-0-0-0-| 


                                              
                                                       
---------------------------------------|------------------------------------| 
---------------------------------------|------------------------------------| 
---------------------------------------|--------------7----------------7----| 
---------------------------------------|--0--0--0--0--x----0--0--0--0--x----| 
--5-3-------------5-3------------------|--0--0--0--0--5----0--0--0--0--5----| 
------0--0--0--0------0--0--0--0--0----|--0--0--0--0-------0--0--0--0-------| 


                                                   
                                               
---------------------------------------|---------------3----L----| 
---------------------------------------|------------6--L----6----| 
---------------------------------------|-------5--L-L--L----L----| 
---------------------------------------|-------------------------| 
--5-3-------------5-3------------------|-------------------------| 
------0--0--0--0------0--0--0--0--0----|--3--L-L--L-L--L----L----| 


                                              
                                                       
---------------------------------------|------------------------------------| 
---------------------------------------|------------------------------------| 
---------------------------------------|--------------7----------------7----| 
---------------------------------------|--0--0--0--0--x----0--0--0--0--x----| 
--5-3-------------5-3------------------|--0--0--0--0--5----0--0--0--0--5----| 
------0--0--0--0------0--0--0--0--0----|--0--0--0--0-------0--0--0--0-------| 


                                                   
                                               
---------------------------------------|---------------3----L----| 
---------------------------------------|------------6--L----6----| 
---------------------------------------|-------5--L-L--L----L----| 
---------------------------------------|-------------------------| 
--5-3-------------5-3------------------|-------------------------| 
------0--0--0--0------0--0--0--0--0----|--3--L-L--L-L--L----L----| 


                                                                
                                                               
-----------------------|--------------------|-----------|-----------| 
-----------------------|--------------------|-----------|-----------| 
-----------------------|--------------------|-----------|-----------| 
--0----L--0----L--0----|--L-----------------|-----------|-----------| 
--0----L--0----L--0----|--L-----------------|-----------|-----------| 
--0----L--0----L--0----|--L-----------------|-----------|-----------| 


-----------|-----------|-----------|-----------|-----------| 
-----------|-----------|-----------|-----------|-----------| 
-----------|-----------|-----------|-----------|-----------| 
-----------|-----------|-----------|-----------|-----------| 
-----------|-----------|-----------|-----------|-----------| 
-----------|-----------|-----------|-----------|-----------| 


                       
                                       
--------------------------|--------------------------| 
--------------------------|--------------------------| 
--7--7--7--7--7--7--7--7--|--7--7--7--7--7--7--7--7--| 
--7--7--7--7--7--7--7--7--|--7--7--7--7--7--7--7--7--| 
--5--5--5--5--5--5--5--5--|--5--5--5--5--5--5--5--5--| 
--------------------------|--------------------------| 


                       
                                       
--------------------------|--------------------------| 
--------------------------|--------------------------| 
--3--3--3--3--3--3--3--3--|--3--3--3--3--3--3--3--3--| 
--3--3--3--3--3--3--3--3--|--3--3--3--3--3--3--3--3--| 
--1--1--1--1--1--1--1--1--|--1--1--1--1--1--1--1--1--| 
--------------------------|--------------------------| 


                       
                                       
--------------------------|--------------------------| 
--------------------------|--------------------------| 
--7--7--7--7--7--7--7--7--|--7--7--7--7--7--7--7--7--| 
--7--7--7--7--7--7--7--7--|--7--7--7--7--7--7--7--7--| 
--5--5--5--5--5--5--5--5--|--5--5--5--5--5--5--5--5--| 
--------------------------|--------------------------| 


                                 
                                       
--------------------------|--------------------------| 
--------------------------|--------------------------| 
--3--3--3--3--3--3--3--3--|--5--5--5--5--5--5--5--5--| 
--3--3--3--3--3--3--3--3--|--5--5--5--5--5--5--5--5--| 
--1--1--1--1--1--1--1--1--|--3--3--3--3--3--3--3--3--| 
--------------------------|--------------------------| 


                           
                                           
--------------------------|------------------------------| 
--------------------------|------------------------------| 
--7--7--7--7--7--7--7--7--|--7--7--7--7--10--10--10--10--| 
--7--7--7--7--7--7--7--7--|--7--7--7--7--10--10--10--10--| 
--5--5--5--5--5--5--5--5--|--5--5--5--5---8---8---8---8--| 
--------------------------|------------------------------| 


                       
                                       
--------------------------|--------------------------| 
--------------------------|--------------------------| 
--3--3--3--3--3--3--3--3--|--3--3--3--3--5--5--5--5--| 
--3--3--3--3--3--3--3--3--|--3--3--3--3--5--5--5--5--| 
--1--1--1--1--1--1--1--1--|--1--1--1--1--3--3--3--3--| 
--------------------------|--------------------------| 


                           
                                           
--------------------------|------------------------------| 
--------------------------|------------------------------| 
--7--7--7--7--7--7--7--7--|--7--7--7--7--10--10--10--10--| 
--7--7--7--7--7--7--7--7--|--7--7--7--7--10--10--10--10--| 
--5--5--5--5--5--5--5--5--|--5--5--5--5---8---8---8---8--| 
--------------------------|------------------------------| 


                                               
                                       
--------------------------|--------------------------| 
--------------------------|--------------------------| 
--3--3--3--3--3--3--3--3--|--3--3--3--3--5--5--5--5--| 
--3--3--3--3--3--3--3--3--|--3--3--3--3--5--5--5--5--| 
--1--1--1--1--1--1--1--1--|--1--1--1--1--3--3--3--3--| 
--------------------------|--------------------------| 


                                              
                                                       
---------------------------------------|------------------------------------| 
---------------------------------------|------------------------------------| 
---------------------------------------|--------------7----------------7----| 
---------------------------------------|--0--0--0--0--x----0--0--0--0--x----| 
--5-3-------------5-3------------------|--0--0--0--0--5----0--0--0--0--5----| 
------0--0--0--0------0--0--0--0--0----|--0--0--0--0-------0--0--0--0-------| 


                                                   
                                               
---------------------------------------|---------------3----L----| 
---------------------------------------|------------6--L----6----| 
---------------------------------------|-------5--L-L--L----L----| 
---------------------------------------|-------------------------| 
--5-3-------------5-3------------------|-------------------------| 
------0--0--0--0------0--0--0--0--0----|--3--L-L--L-L--L----L----| 


                                                
                                                         
---------------------------------------|--------------------------------------| 
---------------------------------------|--------------------------------------| 
---------------------------------------|--------------10----------------10----| 
---------------------------------------|--0--0--0--0---x----0--0--0--0---x----| 
--5-3-------------5-3------------------|--0--0--0--0---8----0--0--0--0---8----| 
------0--0--0--0------0--0--0--0--0----|--0--0--0--0--------0--0--0--0--------| 


                                                   
                                               
---------------------------------------|---------------3----L----| 
---------------------------------------|------------6--L----6----| 
---------------------------------------|-------5--L-L--L----L----| 
---------------------------------------|-------------------------| 
--5-3-------------5-3------------------|-------------------------| 
------0--0--0--0------0--0--0--0--0----|--3--L-L--L-L--L----L----| 


                                                                
                                                               
-----------------------|--------------------|-----------|-----------| 
-----------------------|--------------------|-----------|-----------| 
-----------------------|--------------------|-----------|-----------| 
--0----L--0----L--0----|--L-----------------|-----------|-----------| 
--0----L--0----L--0----|--L-----------------|-----------|-----------| 
--0----L--0----L--0----|--L-----------------|-----------|-----------| 


-----------|-----------|-----------|-----------|-----------| 
-----------|-----------|-----------|-----------|-----------| 
-----------|-----------|-----------|-----------|-----------| 
-----------|-----------|-----------|-----------|-----------| 
-----------|-----------|-----------|-----------|-----------| 
-----------|-----------|-----------|-----------|-----------| 


                       
                                       
--------------------------|--------------------------| 
--------------------------|--------------------------| 
--7--7--7--7--7--7--7--7--|--7--7--7--7--7--7--7--7--| 
--7--7--7--7--7--7--7--7--|--7--7--7--7--7--7--7--7--| 
--5--5--5--5--5--5--5--5--|--5--5--5--5--5--5--5--5--| 
--------------------------|--------------------------| 


                       
                                       
--------------------------|--------------------------| 
--------------------------|--------------------------| 
--3--3--3--3--3--3--3--3--|--3--3--3--3--3--3--3--3--| 
--3--3--3--3--3--3--3--3--|--3--3--3--3--3--3--3--3--| 
--1--1--1--1--1--1--1--1--|--1--1--1--1--1--1--1--1--| 
--------------------------|--------------------------| 


                       
                                       
--------------------------|--------------------------| 
--------------------------|--------------------------| 
--7--7--7--7--7--7--7--7--|--7--7--7--7--7--7--7--7--| 
--7--7--7--7--7--7--7--7--|--7--7--7--7--7--7--7--7--| 
--5--5--5--5--5--5--5--5--|--5--5--5--5--5--5--5--5--| 
--------------------------|--------------------------| 


                                 
                                       
--------------------------|--------------------------| 
--------------------------|--------------------------| 
--3--3--3--3--3--3--3--3--|--5--5--5--5--5--5--5--5--| 
--3--3--3--3--3--3--3--3--|--5--5--5--5--5--5--5--5--| 
--1--1--1--1--1--1--1--1--|--3--3--3--3--3--3--3--3--| 
--------------------------|--------------------------| 


                           
                                           
--------------------------|------------------------------| 
--------------------------|------------------------------| 
--7--7--7--7--7--7--7--7--|--7--7--7--7--10--10--10--10--| 
--7--7--7--7--7--7--7--7--|--7--7--7--7--10--10--10--10--| 
--5--5--5--5--5--5--5--5--|--5--5--5--5---8---8---8---8--| 
--------------------------|------------------------------| 


                       
                                       
--------------------------|--------------------------| 
--------------------------|--------------------------| 
--3--3--3--3--3--3--3--3--|--3--3--3--3--5--5--5--5--| 
--3--3--3--3--3--3--3--3--|--3--3--3--3--5--5--5--5--| 
--1--1--1--1--1--1--1--1--|--1--1--1--1--3--3--3--3--| 
--------------------------|--------------------------| 


                           
                                           
--------------------------|------------------------------| 
--------------------------|------------------------------| 
--7--7--7--7--7--7--7--7--|--7--7--7--7--10--10--10--10--| 
--7--7--7--7--7--7--7--7--|--7--7--7--7--10--10--10--10--| 
--5--5--5--5--5--5--5--5--|--5--5--5--5---8---8---8---8--| 
--------------------------|------------------------------| 


                                               
                                       
--------------------------|--------------------------| 
--------------------------|--------------------------| 
--3--3--3--3--3--3--3--3--|--3--3--3--3--5--5--5--5--| 
--3--3--3--3--3--3--3--3--|--3--3--3--3--5--5--5--5--| 
--1--1--1--1--1--1--1--1--|--1--1--1--1--3--3--3--3--| 
--------------------------|--------------------------| 


                                              
                                                       
---------------------------------------|------------------------------------| 
---------------------------------------|------------------------------------| 
---------------------------------------|--------------7----------------7----| 
---------------------------------------|--0--0--0--0--x----0--0--0--0--x----| 
--5-3-------------5-3------------------|--0--0--0--0--5----0--0--0--0--5----| 
------0--0--0--0------0--0--0--0--0----|--0--0--0--0-------0--0--0--0-------| 


                                                   
                                               
---------------------------------------|---------------3----L----| 
---------------------------------------|------------6--L----6----| 
---------------------------------------|-------5--L-L--L----L----| 
---------------------------------------|-------------------------| 
--5-3-------------5-3------------------|-------------------------| 
------0--0--0--0------0--0--0--0--0----|--3--L-L--L-L--L----L----| 


                                                
                                                         
---------------------------------------|--------------------------------------| 
---------------------------------------|--------------------------------------| 
---------------------------------------|--------------10----------------10----| 
---------------------------------------|--0--0--0--0---x----0--0--0--0---x----| 
--5-3-------------5-3------------------|--0--0--0--0---8----0--0--0--0---8----| 
------0--0--0--0------0--0--0--0--0----|--0--0--0--0--------0--0--0--0--------| 


                                                   
                                               
---------------------------------------|---------------3----L----| 
---------------------------------------|------------6--L----6----| 
---------------------------------------|-------5--L-L--L----L----| 
---------------------------------------|-------------------------| 
--5-3-------------5-3------------------|-------------------------| 
------0--0--0--0------0--0--0--0--0----|--3--L-L--L-L--L----L----| 


                                                          
-------------------|-------------------|-------------------| 
-------------------|-------------------|-------------------| 
-------------------|-------------------|-------------------| 
--0----------------|--L----------------|--L----------------| 
--0----------------|--L----------------|--L----------------| 
--0----------------|--L----------------|--L----------------| 


                       
                                       
--------------------------|--------------------------| 
--------------------------|--------------------------| 
--------------------------|--7--7--7--7--7--7--7--7--| 
--0--0--0--0--0--0--0--0--|--7--7--7--7--7--7--7--7--| 
--0--0--0--0--0--0--0--0--|--5--5--5--5--5--5--5--5--| 
--0--0--0--0--0--0--0--0--|--------------------------| 


                       
                                       
--------------------------|--------------------------| 
--------------------------|--------------------------| 
--7--7--7--7--7--7--7--7--|--7--7--7--7--7--7--7--7--| 
--7--7--7--7--7--7--7--7--|--7--7--7--7--7--7--7--7--| 
--5--5--5--5--5--5--5--5--|--5--5--5--5--5--5--5--5--| 
--------------------------|--------------------------| 


                       
                                       
--------------------------|--------------------------| 
--------------------------|--------------------------| 
--7--7--7--7--7--7--7--7--|--3--3--3--3--3--3--3--3--| 
--7--7--7--7--7--7--7--7--|--3--3--3--3--3--3--3--3--| 
--5--5--5--5--5--5--5--5--|--1--1--1--1--1--1--1--1--| 
--------------------------|--------------------------| 


                       
                                       
--------------------------|--------------------------| 
--------------------------|--------------------------| 
--3--3--3--3--5--5--5--5--|--3--3--3--3--3--3--3--3--| 
--3--3--3--3--5--5--5--5--|--3--3--3--3--3--3--3--3--| 
--1--1--1--1--3--3--3--3--|--1--1--1--1--1--1--1--1--| 
--------------------------|--------------------------| 


                       
                                       
--------------------------|--------------------------| 
--------------------------|--------------------------| 
--3--3--3--3--5--5--5--5--|--7--7--7--7--7--7--7--7--| 
--3--3--3--3--5--5--5--5--|--7--7--7--7--7--7--7--7--| 
--1--1--1--1--3--3--3--3--|--5--5--5--5--5--5--5--5--| 
--------------------------|--------------------------| 


                       
                                       
--------------------------|--------------------------| 
--------------------------|--------------------------| 
--7--7--7--7--7--7--7--7--|--7--7--7--7--7--7--7--7--| 
--7--7--7--7--7--7--7--7--|--7--7--7--7--7--7--7--7--| 
--5--5--5--5--5--5--5--5--|--5--5--5--5--5--5--5--5--| 
--------------------------|--------------------------| 


                       
                                       
--------------------------|--------------------------| 
--------------------------|--------------------------| 
--7--7--7--7--7--7--7--7--|--3--3--3--3--3--3--3--3--| 
--7--7--7--7--7--7--7--7--|--3--3--3--3--3--3--3--3--| 
--5--5--5--5--5--5--5--5--|--1--1--1--1--1--1--1--1--| 
--------------------------|--------------------------| 


                               
                                       
--------------------------|--------------------------| 
--------------------------|--------------------------| 
--3--3--3--3--5--5--5--5--|--3--3--3--3--3--3--3--3--| 
--3--3--3--3--5--5--5--5--|--3--3--3--3--3--3--3--3--| 
--1--1--1--1--3--3--3--3--|--1--1--1--1--1--1--1--1--| 
--------------------------|--------------------------| 


                                       
--------------------------|--------------------------| 
--------------------------|--------------------------| 
--3--3--3--3--5--5--5--5--|--7--7--7--7--7--7--7--7--| 
--3--3--3--3--5--5--5--5--|--7--7--7--7--7--7--7--7--| 
--1--1--1--1--3--3--3--3--|--5--5--5--5--5--5--5--5--| 
--------------------------|--------------------------| 


                                       
--------------------------|--------------------------| 
--------------------------|--------------------------| 
--7--7--7--7--7--7--7--7--|--7--7--7--7--7--7--7--7--| 
--7--7--7--7--7--7--7--7--|--7--7--7--7--7--7--7--7--| 
--5--5--5--5--5--5--5--5--|--5--5--5--5--5--5--5--5--| 
--------------------------|--------------------------| 


                                               
--------------------------|----------------------------------| 
--------------------------|--11--11--11--11--11--11--11--11--| 
--7--7--7--7--7--7--7--7--|--10--10--10--10--10--10--10--10--| 
--7--7--7--7--7--7--7--7--|---8---8---8---8---8---8---8---8--| 
--5--5--5--5--5--5--5--5--|---8---8---8---8---8---8---8---8--| 
--------------------------|---8---8---8---8---8---8---8---8--| 


                                                       
----------------------------------|----------------------------------| 
--11--11--11--11--13--13--13--13--|--11--11--11--11--11--11--11--11--| 
--10--10--10--10--12--12--12--12--|--10--10--10--10--10--10--10--10--| 
---8---8---8---8--10--10--10--10--|---8---8---8---8---8---8---8---8--| 
---8---8---8---8--10--10--10--10--|---8---8---8---8---8---8---8---8--| 
---8---8---8---8--10--10--10--10--|---8---8---8---8---8---8---8---8--| 


                                               
----------------------------------|--------------------------| 
--11--11--11--11--13--13--13--13--|--------------------------| 
--10--10--10--10--12--12--12--12--|--7--7--7--7--7--7--7--7--| 
---8---8---8---8--10--10--10--10--|--7--7--7--7--7--7--7--7--| 
---8---8---8---8--10--10--10--10--|--5--5--5--5--5--5--5--5--| 
---8---8---8---8--10--10--10--10--|--------------------------| 


                                       
--------------------------|--------------------------| 
--------------------------|--------------------------| 
--7--7--7--7--7--7--7--7--|--7--7--7--7--7--7--7--7--| 
--7--7--7--7--7--7--7--7--|--7--7--7--7--7--7--7--7--| 
--5--5--5--5--5--5--5--5--|--5--5--5--5--5--5--5--5--| 
--------------------------|--------------------------| 


                                               
--------------------------|----------------------------------| 
--------------------------|--11--11--11--11--11--11--11--11--| 
--7--7--7--7--7--7--7--7--|--10--10--10--10--10--10--10--10--| 
--7--7--7--7--7--7--7--7--|---8---8---8---8---8---8---8---8--| 
--5--5--5--5--5--5--5--5--|---8---8---8---8---8---8---8---8--| 
--------------------------|---8---8---8---8---8---8---8---8--| 


                                                       
----------------------------------|----------------------------------| 
--11--11--11--11--13--13--13--13--|--11--11--11--11--11--11--11--11--| 
--10--10--10--10--12--12--12--12--|--10--10--10--10--10--10--10--10--| 
---8---8---8---8--10--10--10--10--|---8---8---8---8---8---8---8---8--| 
---8---8---8---8--10--10--10--10--|---8---8---8---8---8---8---8---8--| 
---8---8---8---8--10--10--10--10--|---8---8---8---8---8---8---8---8--| 


                                               
----------------------------------|--------------------------| 
--11--11--11--11--13--13--13--13--|--------------------------| 
--10--10--10--10--12--12--12--12--|--------------------------| 
---8---8---8---8--10--10--10--10--|--0--0--0--0--0--0--0--0--| 
---8---8---8---8--10--10--10--10--|--0--0--0--0--0--0--0--0--| 
---8---8---8---8--10--10--10--10--|--0--0--0--0--0--0--0--0--| 


                                       
--------------------------|--------------------------| 
--------------------------|--------------------------| 
--------------------------|--------------------------| 
--0--0--0--0--0--0--0--0--|--0--0--0--0--0--0--0--0--| 
--0--0--0--0--0--0--0--0--|--0--0--0--0--0--0--0--0--| 
--0--0--0--0--0--0--0--0--|--0--0--0--0--0--0--0--0--| 


                                       
--------------------------|--------------------------| 
--------------------------|--------------------------| 
--------------------------|--------------------------| 
--0--0--0--0--0--0--0--0--|--8--8--8--8--8--8--8--8--| 
--0--0--0--0--0--0--0--0--|--8--8--8--8--8--8--8--8--| 
--0--0--0--0--0--0--0--0--|--8--8--8--8--8--8--8--8--| 


                                           
------------------------------|--------------------------| 
------------------------------|--------------------------| 
------------------------------|--------------------------| 
--8--8--8--8--10--10--10--10--|--8--8--8--8--8--8--8--8--| 
--8--8--8--8--10--10--10--10--|--8--8--8--8--8--8--8--8--| 
--8--8--8--8--10--10--10--10--|--8--8--8--8--8--8--8--8--| 


                                           
------------------------------|--------------------------| 
------------------------------|--------------------------| 
------------------------------|--------------------------| 
--8--8--8--8--10--10--10--10--|--0--0--0--0--0--0--0--0--| 
--8--8--8--8--10--10--10--10--|--0--0--0--0--0--0--0--0--| 
--8--8--8--8--10--10--10--10--|--0--0--0--0--0--0--0--0--| 


                                       
--------------------------|--------------------------| 
--------------------------|--------------------------| 
--------------------------|--------------------------| 
--0--0--0--0--0--0--0--0--|--0--0--0--0--0--0--0--0--| 
--0--0--0--0--0--0--0--0--|--0--0--0--0--0--0--0--0--| 
--0--0--0--0--0--0--0--0--|--0--0--0--0--0--0--0--0--| 


                                       
--------------------------|--------------------------| 
--------------------------|--------------------------| 
--------------------------|--------------------------| 
--0--0--0--0--0--0--0--0--|--8--8--8--8--8--8--8--8--| 
--0--0--0--0--0--0--0--0--|--8--8--8--8--8--8--8--8--| 
--0--0--0--0--0--0--0--0--|--8--8--8--8--8--8--8--8--| 


                                           
------------------------------|--------------------------| 
------------------------------|--------------------------| 
------------------------------|--------------------------| 
--8--8--8--8--10--10--10--10--|--8--8--8--8--8--8--8--8--| 
--8--8--8--8--10--10--10--10--|--8--8--8--8--8--8--8--8--| 
--8--8--8--8--10--10--10--10--|--8--8--8--8--8--8--8--8--| 


                                                                        
------------------------------|-----|-----|-----|-----|-----|-----|-----|-----| 
------------------------------|-----|-----|-----|-----|-----|-----|-----|-----| 
------------------------------|-----|-----|-----|-----|-----|-----|-----|-----| 
--8--8--8--8--10--10--10--10--|-----|-----|-----|-----|-----|-----|-----|-----| 
--8--8--8--8--10--10--10--10--|-----|-----|-----|-----|-----|-----|-----|-----| 
--8--8--8--8--10--10--10--10--|-----|-----|-----|-----|-----|-----|-----|-----| 


                                              
                                                       
---------------------------------------|------------------------------------| 
---------------------------------------|------------------------------------| 
---------------------------------------|--------------7----------------7----| 
---------------------------------------|--0--0--0--0--x----0--0--0--0--x----| 
--5-3-------------5-3------------------|--0--0--0--0--5----0--0--0--0--5----| 
------0--0--0--0------0--0--0--0--0----|--0--0--0--0-------0--0--0--0-------| 


                                                   
                                               
---------------------------------------|---------------3----L----| 
---------------------------------------|------------6--L----6----| 
---------------------------------------|-------5--L-L--L----L----| 
---------------------------------------|-------------------------| 
--5-3-------------5-3------------------|-------------------------| 
------0--0--0--0------0--0--0--0--0----|--3--L-L--L-L--L----L----| 


                                                
                                                         
---------------------------------------|--------------------------------------| 
---------------------------------------|--------------------------------------| 
---------------------------------------|--------------10----------------10----| 
---------------------------------------|--0--0--0--0---x----0--0--0--0---x----| 
--5-3-------------5-3------------------|--0--0--0--0---8----0--0--0--0---8----| 
------0--0--0--0------0--0--0--0--0----|--0--0--0--0--------0--0--0--0--------| 


                                                   
                                               
---------------------------------------|---------------3----L----| 
---------------------------------------|------------6--L----6----| 
---------------------------------------|-------5--L-L--L----L----| 
---------------------------------------|-------------------------| 
--5-3-------------5-3------------------|-------------------------| 
------0--0--0--0------0--0--0--0--0----|--3--L-L--L-L--L----L----| 


                                              
                                                       
---------------------------------------|------------------------------------| 
---------------------------------------|------------------------------------| 
---------------------------------------|--------------7----------------7----| 
---------------------------------------|--0--0--0--0--x----0--0--0--0--x----| 
--5-3-------------5-3------------------|--0--0--0--0--5----0--0--0--0--5----| 
------0--0--0--0------0--0--0--0--0----|--0--0--0--0-------0--0--0--0-------| 


                                                   
                                               
---------------------------------------|---------------3----L----| 
---------------------------------------|------------6--L----6----| 
---------------------------------------|-------5--L-L--L----L----| 
---------------------------------------|-------------------------| 
--5-3-------------5-3------------------|-------------------------| 
------0--0--0--0------0--0--0--0--0----|--3--L-L--L-L--L----L----| 


                                                
                                                         
---------------------------------------|--------------------------------------| 
---------------------------------------|--------------------------------------| 
---------------------------------------|--------------10----------------10----| 
---------------------------------------|--0--0--0--0---x----0--0--0--0---x----| 
--5-3-------------5-3------------------|--0--0--0--0---8----0--0--0--0---8----| 
------0--0--0--0------0--0--0--0--0----|--0--0--0--0--------0--0--0--0--------| 


                                                   
                                               
---------------------------------------|---------------3----L----| 
---------------------------------------|------------6--L----6----| 
---------------------------------------|-------5--L-L--L----L----| 
---------------------------------------|-------------------------| 
--5-3-------------5-3------------------|-------------------------| 
------0--0--0--0------0--0--0--0--0----|--3--L-L--L-L--L----L----| 


                                                        
                                                
------------------------------------------|--------------------------|| 
------------------------------------------|--------------------------|| 
------------------------------------------|--------------------------|| 
------------------------------------------|--------------------------|| 
--5-3-------------5-3-------------------3-|--------------------------|| 
------0--0--0--0------0--0--0--0--0-3-5---|--0-----------------------|| 


Guitar 2 

                                                                          
                                               
D||------------------------------------|-------------------------------------| 
A||------------------------------------|-------------------------------------| 
F||------------------------------------|-------------------------------------| 
C||------------------------------------|-------------------------------------| 
G||--0-5-0-5-12-5-0-5-0-5-12-5-0-5-0-5-|--12-5-0-5-0-5-12-5-0-5-0-5-12-5-0-5-| 
C||------------------------------------|-------------------------------------| 


                                                                       
                                            
------------------------------------|-------------------------------------| 
------------------------------------|-------------------------------------| 
------------------------------------|-------------------------------------| 
------------------------------------|-------------------------------------| 
--0-5-0-5-13-5-0-5-0-5-13-5-0-5-0-5-|--13-5-0-5-0-5-13-5-0-5-0-5-13-5-0-5-| 
------------------------------------|-------------------------------------| 


                                                                       
                                            
------------------------------------|-------------------------------------| 
------------------------------------|-------------------------------------| 
------------------------------------|-------------------------------------| 
------------------------------------|-------------------------------------| 
--0-5-0-5-15-5-0-5-0-5-15-5-0-5-0-5-|--15-5-0-5-0-5-15-5-0-5-0-5-15-5-0-5-| 
------------------------------------|-------------------------------------| 


                                                                       
                                            
------------------------------------|-------------------------------------| 
------------------------------------|-------------------------------------| 
------------------------------------|-------------------------------------| 
------------------------------------|-------------------------------------| 
--0-5-0-5-12-5-0-5-0-5-12-5-0-5-0-5-|--12-5-0-5-0-5-12-5-0-5-0-5-12-5-0-5-| 
------------------------------------|-------------------------------------| 


                                                                       
                                            
------------------------------------|-------------------------------------| 
------------------------------------|-------------------------------------| 
------------------------------------|-------------------------------------| 
------------------------------------|-------------------------------------| 
--0-5-0-5-12-5-0-5-0-5-12-5-0-5-0-5-|--12-5-0-5-0-5-12-5-0-5-0-5-12-5-0-5-| 
------------------------------------|-------------------------------------| 


                                                                       
                                            
------------------------------------|-------------------------------------| 
------------------------------------|-------------------------------------| 
------------------------------------|-------------------------------------| 
------------------------------------|-------------------------------------| 
--0-5-0-5-13-5-0-5-0-5-13-5-0-5-0-5-|--13-5-0-5-0-5-13-5-0-5-0-5-13-5-0-5-| 
------------------------------------|-------------------------------------| 


                                                                       
                                            
------------------------------------|-------------------------------------| 
------------------------------------|-------------------------------------| 
------------------------------------|-------------------------------------| 
------------------------------------|-------------------------------------| 
--0-5-0-5-15-5-0-5-0-5-15-5-0-5-0-5-|--15-5-0-5-0-5-15-5-0-5-0-5-15-5-0-5-| 
------------------------------------|-------------------------------------| 


                                                                       
                                            
------------------------------------|-------------------------------------| 
------------------------------------|-------------------------------------| 
------------------------------------|-------------------------------------| 
------------------------------------|-------------------------------------| 
--0-5-0-5-12-5-0-5-0-5-12-5-0-5-0-5-|--12-5-0-5-0-5-12-5-0-5-0-5-12-5-0-5-| 
------------------------------------|-------------------------------------| 


                                                                       
                                            
------------------------------------|-------------------------------------| 
------------------------------------|-------------------------------------| 
------------------------------------|-------------------------------------| 
------------------------------------|-------------------------------------| 
--0-5-0-5-12-5-0-5-0-5-12-5-0-5-0-5-|--12-5-0-5-0-5-12-5-0-5-0-5-12-5-0-5-| 
------------------------------------|-------------------------------------| 


                                                                       
                                            
------------------------------------|-------------------------------------| 
------------------------------------|-------------------------------------| 
------------------------------------|-------------------------------------| 
------------------------------------|-------------------------------------| 
--0-5-0-5-13-5-0-5-0-5-13-5-0-5-0-5-|--13-5-0-5-0-5-13-5-0-5-0-5-13-5-0-5-| 
------------------------------------|-------------------------------------| 


                                                                       
                                            
------------------------------------|-------------------------------------| 
------------------------------------|-------------------------------------| 
------------------------------------|-------------------------------------| 
------------------------------------|-------------------------------------| 
--0-5-0-5-15-5-0-5-0-5-15-5-0-5-0-5-|--15-5-0-5-0-5-15-5-0-5-0-5-15-5-0-5-| 
------------------------------------|-------------------------------------| 


                                                                       
                                            
------------------------------------|-------------------------------------| 
------------------------------------|-------------------------------------| 
------------------------------------|-------------------------------------| 
------------------------------------|-------------------------------------| 
--0-5-0-5-12-5-0-5-0-5-12-5-0-5-0-5-|--12-5-0-5-0-5-12-5-0-5-0-5-12-5-0-5-| 
------------------------------------|-------------------------------------| 


                                              
                                                       
---------------------------------------|------------------------------------| 
---------------------------------------|------------------------------------| 
---------------------------------------|--------------7----------------7----| 
---------------------------------------|--0--0--0--0--x----0--0--0--0--x----| 
--5-3-------------5-3------------------|--0--0--0--0--5----0--0--0--0--5----| 
------0--0--0--0------0--0--0--0--0----|--0--0--0--0-------0--0--0--0-------| 


                                                   
                                               
---------------------------------------|---------------3----L----| 
---------------------------------------|------------6--L----6----| 
---------------------------------------|-------5--L-L--L----L----| 
---------------------------------------|-------------------------| 
--5-3-------------5-3------------------|-------------------------| 
------0--0--0--0------0--0--0--0--0----|--3--L-L--L-L--L----L----| 


                                                
                                                         
---------------------------------------|--------------------------------------| 
---------------------------------------|--------------------------------------| 
---------------------------------------|--------------10----------------10----| 
---------------------------------------|--0--0--0--0---x----0--0--0--0---x----| 
--5-3-------------5-3------------------|--0--0--0--0---8----0--0--0--0---8----| 
------0--0--0--0------0--0--0--0--0----|--0--0--0--0--------0--0--0--0--------| 


                                                   
                                               
---------------------------------------|---------------3----L----| 
---------------------------------------|------------6--L----6----| 
---------------------------------------|-------5--L-L--L----L----| 
---------------------------------------|-------------------------| 
--5-3-------------5-3------------------|-------------------------| 
------0--0--0--0------0--0--0--0--0----|--3--L-L--L-L--L----L----| 


                                                                
                                                          
-----------------------|---------------0--------|--L----------------| 
-----------------------|------------6--L--------|--L----------------| 
-----------------------|-------5--L----L--------|--L----------------| 
--0----L--0----L--0----|------------------------|-------------------| 
--0----L--0----L--0----|------------------------|-------------------| 
--0----L--0----L--0----|--0--L---------L--------|--L----------------| 


                                                          
---------------1-L----L--L-|--L----------------|---------------0--------| 
-----------------1----L--L-|--L----------------|------------6--L--------| 
------------3------------L-|--L----------------|-------5--L----L--------| 
-------3--L--------------L-|--L----------------|------------------------| 
--1--L-------------------L-|--L----------------|------------------------| 
---------------------------|-------------------|--0--L---------L--------| 


                                                          
--L----------------|---------------1-L----L--L-|---------------3-L----L--L-| 
--L----------------|-----------------1----L--L-|-----------------3----L--L-| 
--L----------------|------------3------------L-|------------5------------L-| 
-------------------|-------3--L--------------L-|-------5--L--------------L-| 
-------------------|--1--L-------------------L-|--3--L-------------------L-| 
--L----------------|---------------------------|---------------------------| 


                                                          
---------------0--------|--L----------------|---------------1-L----L--L-| 
------------6--L--------|--L----------------|-----------------1----L--L-| 
-------5--L----L--------|--L----------------|------------3------------L-| 
------------------------|-------------------|-------3--L--------------L-| 
------------------------|-------------------|--1--L-------------------L-| 
--0--L---------L--------|--L----------------|---------------------------| 


                                                          
--L----------------|---------------0--------|--L----------------| 
--L----------------|------------6--L--------|--L----------------| 
--L----------------|-------5--L----L--------|--L----------------| 
--L----------------|------------------------|-------------------| 
--L----------------|------------------------|-------------------| 
-------------------|--0--L---------L--------|--L----------------| 


                                       
---------------1-L----L--L-|---------------3-L----L--L-| 
-----------------1----L--L-|-----------------3----L--L-| 
------------3------------L-|------------5------------L-| 
-------3--L--------------L-|-------5--L--------------L-| 
--1--L-------------------L-|--3--L-------------------L-| 
---------------------------|---------------------------| 


                                                                       
                                            
------------------------------------|-------------------------------------| 
------------------------------------|-------------------------------------| 
------------------------------------|-------------------------------------| 
------------------------------------|-------------------------------------| 
--0-5-0-5-12-5-0-5-0-5-12-5-0-5-0-5-|--12-5-0-5-0-5-12-5-0-5-0-5-12-5-0-5-| 
------------------------------------|-------------------------------------| 


                                                                    
                                            
------------------------------------|----------------------------------| 
------------------------------------|----------------------------------| 
------------------------------------|----------------------------------| 
------------------------------------|----------------------------------| 
--0-5-0-5-13-5-0-5-0-5-13-5-0-5-0-5-|--13-5-0-5-0-5-13-5-0-5-0-5-15----| 
------------------------------------|----------------------------------| 


                                                                       
                                            
------------------------------------|-------------------------------------| 
------------------------------------|-------------------------------------| 
------------------------------------|-------------------------------------| 
------------------------------------|-------------------------------------| 
--0-5-0-5-12-5-0-5-0-5-12-5-0-5-0-5-|--12-5-0-5-0-5-12-5-0-5-0-5-12-5-0-5-| 
------------------------------------|-------------------------------------| 


                                                                    
                                            
------------------------------------|----------------------------------| 
------------------------------------|----------------------------------| 
------------------------------------|----------------------------------| 
------------------------------------|----------------------------------| 
--0-5-0-5-13-5-0-5-0-5-13-5-0-5-0-5-|--13-5-0-5-0-5-13-5-0-5-0-5-15----| 
------------------------------------|----------------------------------| 


                                              
                                                       
---------------------------------------|------------------------------------| 
---------------------------------------|------------------------------------| 
---------------------------------------|--------------7----------------7----| 
---------------------------------------|--0--0--0--0--x----0--0--0--0--x----| 
--5-3-------------5-3------------------|--0--0--0--0--5----0--0--0--0--5----| 
------0--0--0--0------0--0--0--0--0----|--0--0--0--0-------0--0--0--0-------| 


                                                   
                                               
---------------------------------------|---------------3----L----| 
---------------------------------------|------------6--L----6----| 
---------------------------------------|-------5--L-L--L----L----| 
---------------------------------------|-------------------------| 
--5-3-------------5-3------------------|-------------------------| 
------0--0--0--0------0--0--0--0--0----|--3--L-L--L-L--L----L----| 


                                              
                                                       
---------------------------------------|------------------------------------| 
---------------------------------------|------------------------------------| 
---------------------------------------|--------------7----------------7----| 
---------------------------------------|--0--0--0--0--x----0--0--0--0--x----| 
--5-3-------------5-3------------------|--0--0--0--0--5----0--0--0--0--5----| 
------0--0--0--0------0--0--0--0--0----|--0--0--0--0-------0--0--0--0-------| 


                                                   
                                               
---------------------------------------|---------------3----L----| 
---------------------------------------|------------6--L----6----| 
---------------------------------------|-------5--L-L--L----L----| 
---------------------------------------|-------------------------| 
--5-3-------------5-3------------------|-------------------------| 
------0--0--0--0------0--0--0--0--0----|--3--L-L--L-L--L----L----| 


                                                                
                                                          
-----------------------|---------------0--------|--L----------------| 
-----------------------|------------6--L--------|--L----------------| 
-----------------------|-------5--L----L--------|--L----------------| 
--0----L--0----L--0----|------------------------|-------------------| 
--0----L--0----L--0----|------------------------|-------------------| 
--0----L--0----L--0----|--0--L---------L--------|--L----------------| 


                                                          
---------------1-L----L--L-|--L----------------|---------------0--------| 
-----------------1----L--L-|--L----------------|------------6--L--------| 
------------3------------L-|--L----------------|-------5--L----L--------| 
-------3--L--------------L-|--L----------------|------------------------| 
--1--L-------------------L-|--L----------------|------------------------| 
---------------------------|-------------------|--0--L---------L--------| 


                                                          
--L----------------|---------------1-L----L--L-|---------------3-L----L--L-| 
--L----------------|-----------------1----L--L-|-----------------3----L--L-| 
--L----------------|------------3------------L-|------------5------------L-| 
-------------------|-------3--L--------------L-|-------5--L--------------L-| 
-------------------|--1--L-------------------L-|--3--L-------------------L-| 
--L----------------|---------------------------|---------------------------| 


                                                          
---------------0--------|--L----------------|---------------1-L----L--L-| 
------------6--L--------|--L----------------|-----------------1----L--L-| 
-------5--L----L--------|--L----------------|------------3------------L-| 
------------------------|-------------------|-------3--L--------------L-| 
------------------------|-------------------|--1--L-------------------L-| 
--0--L---------L--------|--L----------------|---------------------------| 


                                                          
--L----------------|---------------0--------|--L----------------| 
--L----------------|------------6--L--------|--L----------------| 
--L----------------|-------5--L----L--------|--L----------------| 
--L----------------|------------------------|-------------------| 
--L----------------|------------------------|-------------------| 
-------------------|--0--L---------L--------|--L----------------| 


                                       
---------------1-L----L--L-|---------------3-L----L--L-| 
-----------------1----L--L-|-----------------3----L--L-| 
------------3------------L-|------------5------------L-| 
-------3--L--------------L-|-------5--L--------------L-| 
--1--L-------------------L-|--3--L-------------------L-| 
---------------------------|---------------------------| 


                                                                       
                                            
------------------------------------|-------------------------------------| 
------------------------------------|-------------------------------------| 
------------------------------------|-------------------------------------| 
------------------------------------|-------------------------------------| 
--0-5-0-5-12-5-0-5-0-5-12-5-0-5-0-5-|--12-5-0-5-0-5-12-5-0-5-0-5-12-5-0-5-| 
------------------------------------|-------------------------------------| 


                                                                    
                                            
------------------------------------|----------------------------------| 
------------------------------------|----------------------------------| 
------------------------------------|----------------------------------| 
------------------------------------|----------------------------------| 
--0-5-0-5-13-5-0-5-0-5-13-5-0-5-0-5-|--13-5-0-5-0-5-13-5-0-5-0-5-15----| 
------------------------------------|----------------------------------| 


                                                                       
                                            
------------------------------------|-------------------------------------| 
------------------------------------|-------------------------------------| 
------------------------------------|-------------------------------------| 
------------------------------------|-------------------------------------| 
--0-5-0-5-12-5-0-5-0-5-12-5-0-5-0-5-|--12-5-0-5-0-5-12-5-0-5-0-5-12-5-0-5-| 
------------------------------------|-------------------------------------| 


                                                                    
                                            
------------------------------------|----------------------------------| 
------------------------------------|----------------------------------| 
------------------------------------|----------------------------------| 
------------------------------------|----------------------------------| 
--0-5-0-5-13-5-0-5-0-5-13-5-0-5-0-5-|--13-5-0-5-0-5-13-5-0-5-0-5-15----| 
------------------------------------|----------------------------------| 


                                              
                                                       
---------------------------------------|------------------------------------| 
---------------------------------------|------------------------------------| 
---------------------------------------|--------------7----------------7----| 
---------------------------------------|--0--0--0--0--x----0--0--0--0--x----| 
--5-3-------------5-3------------------|--0--0--0--0--5----0--0--0--0--5----| 
------0--0--0--0------0--0--0--0--0----|--0--0--0--0-------0--0--0--0-------| 


                                                   
                                               
---------------------------------------|---------------3----L----| 
---------------------------------------|------------6--L----6----| 
---------------------------------------|-------5--L-L--L----L----| 
---------------------------------------|-------------------------| 
--5-3-------------5-3------------------|-------------------------| 
------0--0--0--0------0--0--0--0--0----|--3--L-L--L-L--L----L----| 


                                              
                                                       
---------------------------------------|------------------------------------| 
---------------------------------------|------------------------------------| 
---------------------------------------|--------------7----------------7----| 
---------------------------------------|--0--0--0--0--x----0--0--0--0--x----| 
--5-3-------------5-3------------------|--0--0--0--0--5----0--0--0--0--5----| 
------0--0--0--0------0--0--0--0--0----|--0--0--0--0-------0--0--0--0-------| 


                                                   
                                               
---------------------------------------|---------------3----L----| 
---------------------------------------|------------6--L----6----| 
---------------------------------------|-------5--L-L--L----L----| 
---------------------------------------|-------------------------| 
--5-3-------------5-3------------------|-------------------------| 
------0--0--0--0------0--0--0--0--0----|--3--L-L--L-L--L----L----| 


                                                          
-------------------|-------------------|-------------------| 
-------------------|-------------------|-------------------| 
-------------------|-------------------|-------------------| 
--0----------------|--L----------------|--L----------------| 
--0----------------|--L----------------|--L----------------| 
--0----------------|--L----------------|--L----------------| 


                                                        
                                                          
--------------------------|-----------1-L----L--L-|--L----------------| 
--------------------------|-------------1----L--L-|--L----------------| 
--------------------------|-----------------------|-------------------| 
--0--0--0--0--0--0--0--0--|-----------------------|-------------------| 
--0--0--0--0--0--0--0--0--|-----------------------|-------------------| 
--0--0--0--0--0--0--0--0--|-----------------------|-------------------| 


                                                          
-----------1-L----L--L-|--L----------------|-----------1-L----L--L-| 
-------------1----L--L-|--L----------------|-------------1----L--L-| 
-----------------------|-------------------|-----------------------| 
-----------------------|-------------------|-----------------------| 
-----------------------|-------------------|-----------------------| 
-----------------------|-------------------|-----------------------| 


                                                          
--L----------------|-----------1-L----L--L-|--L----------------| 
--L----------------|-------------1----L--L-|--L----------------| 
-------------------|-----------------------|-------------------| 
-------------------|-----------------------|-------------------| 
-------------------|-----------------------|-------------------| 
-------------------|-----------------------|-------------------| 


                                                          
-----------1-L----L--L-|--L----------------|-----------1-L----L--L-| 
-------------1----L--L-|--L----------------|-------------1----L--L-| 
-----------------------|-------------------|-----------------------| 
-----------------------|-------------------|-----------------------| 
-----------------------|-------------------|-----------------------| 
-----------------------|-------------------|-----------------------| 


                                                          
--L----------------|-----------1-L----L--L-|--L----------------| 
--L----------------|-------------1----L--L-|--L----------------| 
-------------------|-----------------------|-------------------| 
-------------------|-----------------------|-------------------| 
-------------------|-----------------------|-------------------| 
-------------------|-----------------------|-------------------| 


                                                           
-----------1-L----L--L-|--L----------------|-------------------| 
-------------1----L--L-|--L----------------|-------------------| 
-----------------------|-------------------|-------------------| 
-----------------------|-------------------|-------------------| 
-----------------------|-------------------|-------------------| 
-----------------------|-------------------|-------------------| 


-------------------|-------------------|-------------------|-------------------| 
-------------------|-------------------|-------------------|-------------------| 
-------------------|-------------------|-------------------|-------------------| 
-------------------|-------------------|-------------------|-------------------| 
-------------------|-------------------|-------------------|-------------------| 
-------------------|-------------------|-------------------|-------------------| 


-------------------|-------------------|-------------------| 
-------------------|-------------------|-------------------| 
-------------------|-------------------|-------------------| 
-------------------|-------------------|-------------------| 
-------------------|-------------------|-------------------| 
-------------------|-------------------|-------------------| 


                                                       
--17--18--17--18--17--18--17--18--|--17--18--17--18--17--18--17--18--| 
----------------------------------|----------------------------------| 
----------------------------------|----------------------------------| 
----------------------------------|----------------------------------| 
----------------------------------|----------------------------------| 
----------------------------------|----------------------------------| 


                                                       
--17--18--17--18--17--18--17--18--|--17--18--17--18--17--18--17--18--| 
----------------------------------|----------------------------------| 
----------------------------------|----------------------------------| 
----------------------------------|----------------------------------| 
----------------------------------|----------------------------------| 
----------------------------------|----------------------------------| 


                                                       
--17--22--17--18--17--22--17--18--|--17--22--17--18--17--22--17--18--| 
----------------------------------|----------------------------------| 
----------------------------------|----------------------------------| 
----------------------------------|----------------------------------| 
----------------------------------|----------------------------------| 
----------------------------------|----------------------------------| 


                                                       
--17--22--17--18--17--22--17--18--|--17--22--17--18--17--22--17--18--| 
----------------------------------|----------------------------------| 
----------------------------------|----------------------------------| 
----------------------------------|----------------------------------| 
----------------------------------|----------------------------------| 
----------------------------------|----------------------------------| 


                                                       
--17--18--17--18--17--18--17--18--|--17--18--17--18--17--18--17--18--| 
----------------------------------|----------------------------------| 
----------------------------------|----------------------------------| 
----------------------------------|----------------------------------| 
----------------------------------|----------------------------------| 
----------------------------------|----------------------------------| 


                                                       
--17--18--17--18--17--18--17--18--|--17--18--17--18--17--18--17--18--| 
----------------------------------|----------------------------------| 
----------------------------------|----------------------------------| 
----------------------------------|----------------------------------| 
----------------------------------|----------------------------------| 
----------------------------------|----------------------------------| 


                                                       
--17--22--17--18--17--22--17--18--|--17--22--17--18--17--22--17--18--| 
----------------------------------|----------------------------------| 
----------------------------------|----------------------------------| 
----------------------------------|----------------------------------| 
----------------------------------|----------------------------------| 
----------------------------------|----------------------------------| 


                                                       
--17--22--17--18--17--22--17--18--|--17--22--17--18--17--22--17--18--| 
----------------------------------|----------------------------------| 
----------------------------------|----------------------------------| 
----------------------------------|----------------------------------| 
----------------------------------|----------------------------------| 
----------------------------------|----------------------------------| 


                                                       
--17--18--17--18--17--18--17--18--|--17--18--17--18--17--18--17--18--| 
----------------------------------|----------------------------------| 
----------------------------------|----------------------------------| 
----------------------------------|----------------------------------| 
----------------------------------|----------------------------------| 
----------------------------------|----------------------------------| 


                                                       
--17--18--17--18--17--18--17--18--|--17--18--17--18--17--18--17--18--| 
----------------------------------|----------------------------------| 
----------------------------------|----------------------------------| 
----------------------------------|----------------------------------| 
----------------------------------|----------------------------------| 
----------------------------------|----------------------------------| 


                                                       
--17--22--17--18--17--22--17--18--|--17--22--17--18--17--22--17--18--| 
----------------------------------|----------------------------------| 
----------------------------------|----------------------------------| 
----------------------------------|----------------------------------| 
----------------------------------|----------------------------------| 
----------------------------------|----------------------------------| 


                                                       
--17--22--17--18--17--22--17--18--|--17--22--17--18--17--22--17--18--| 
----------------------------------|----------------------------------| 
----------------------------------|----------------------------------| 
----------------------------------|----------------------------------| 
----------------------------------|----------------------------------| 
----------------------------------|----------------------------------| 


                                                                       
                                            
------------------------------------|-------------------------------------| 
------------------------------------|-------------------------------------| 
------------------------------------|-------------------------------------| 
------------------------------------|-------------------------------------| 
--0-5-0-5-12-5-0-5-0-5-12-5-0-5-0-5-|--12-5-0-5-0-5-12-5-0-5-0-5-12-5-0-5-| 
------------------------------------|-------------------------------------| 


                                                                    
                                            
------------------------------------|----------------------------------| 
------------------------------------|----------------------------------| 
------------------------------------|----------------------------------| 
------------------------------------|----------------------------------| 
--0-5-0-5-13-5-0-5-0-5-13-5-0-5-0-5-|--13-5-0-5-0-5-13-5-0-5-0-5-15----| 
------------------------------------|----------------------------------| 


                                                                       
                                            
------------------------------------|-------------------------------------| 
------------------------------------|-------------------------------------| 
------------------------------------|-------------------------------------| 
------------------------------------|-------------------------------------| 
--0-5-0-5-12-5-0-5-0-5-12-5-0-5-0-5-|--12-5-0-5-0-5-12-5-0-5-0-5-12-5-0-5-| 
------------------------------------|-------------------------------------| 


                                                                    
                                            
------------------------------------|----------------------------------| 
------------------------------------|----------------------------------| 
------------------------------------|----------------------------------| 
------------------------------------|----------------------------------| 
--0-5-0-5-13-5-0-5-0-5-13-5-0-5-0-5-|--13-5-0-5-0-5-13-5-0-5-0-5-15----| 
------------------------------------|----------------------------------| 


                                              
                                                       
---------------------------------------|------------------------------------| 
---------------------------------------|------------------------------------| 
---------------------------------------|--------------7----------------7----| 
---------------------------------------|--0--0--0--0--x----0--0--0--0--x----| 
--5-3-------------5-3------------------|--0--0--0--0--5----0--0--0--0--5----| 
------0--0--0--0------0--0--0--0--0----|--0--0--0--0-------0--0--0--0-------| 


                                                   
                                               
---------------------------------------|---------------3----L----| 
---------------------------------------|------------6--L----6----| 
---------------------------------------|-------5--L-L--L----L----| 
---------------------------------------|-------------------------| 
--5-3-------------5-3------------------|-------------------------| 
------0--0--0--0------0--0--0--0--0----|--3--L-L--L-L--L----L----| 


                                              
                                                       
---------------------------------------|------------------------------------| 
---------------------------------------|------------------------------------| 
---------------------------------------|--------------7----------------7----| 
---------------------------------------|--0--0--0--0--x----0--0--0--0--x----| 
--5-3-------------5-3------------------|--0--0--0--0--5----0--0--0--0--5----| 
------0--0--0--0------0--0--0--0--0----|--0--0--0--0-------0--0--0--0-------| 


                                                   
                                               
---------------------------------------|---------------3----L----| 
---------------------------------------|------------6--L----6----| 
---------------------------------------|-------5--L-L--L----L----| 
---------------------------------------|-------------------------| 
--5-3-------------5-3------------------|-------------------------| 
------0--0--0--0------0--0--0--0--0----|--3--L-L--L-L--L----L----| 


                                              
                                                       
---------------------------------------|------------------------------------| 
---------------------------------------|------------------------------------| 
---------------------------------------|--------------7----------------7----| 
---------------------------------------|--0--0--0--0--x----0--0--0--0--x----| 
--5-3-------------5-3------------------|--0--0--0--0--5----0--0--0--0--5----| 
------0--0--0--0------0--0--0--0--0----|--0--0--0--0-------0--0--0--0-------| 


                                                   
                                               
---------------------------------------|---------------3----L----| 
---------------------------------------|------------6--L----6----| 
---------------------------------------|-------5--L-L--L----L----| 
---------------------------------------|-------------------------| 
--5-3-------------5-3------------------|-------------------------| 
------0--0--0--0------0--0--0--0--0----|--3--L-L--L-L--L----L----| 


                                              
                                                       
---------------------------------------|------------------------------------| 
---------------------------------------|------------------------------------| 
---------------------------------------|--------------7----------------7----| 
---------------------------------------|--0--0--0--0--x----0--0--0--0--x----| 
--5-3-------------5-3------------------|--0--0--0--0--5----0--0--0--0--5----| 
------0--0--0--0------0--0--0--0--0----|--0--0--0--0-------0--0--0--0-------| 


                                                   
                                               
---------------------------------------|---------------3----L----| 
---------------------------------------|------------6--L----6----| 
---------------------------------------|-------5--L-L--L----L----| 
---------------------------------------|-------------------------| 
--5-3-------------5-3------------------|-------------------------| 
------0--0--0--0------0--0--0--0--0----|--3--L-L--L-L--L----L----| 


                                                        
                                                
------------------------------------------|--------------------------|| 
------------------------------------------|--------------------------|| 
------------------------------------------|--------------------------|| 
------------------------------------------|--------------------------|| 
--5-3-------------5-3-------------------3-|--------------------------|| 
------0--0--0--0------0--0--0--0--0-3-5---|--0-----------------------|| 


Guitar 3 

tarts at (02:50) 

                                                                
-------|-------|-------|-------------------------|-------------------| 
-------|-------|-------|----------------6--------|--L----------------| 
-------|-------|-------|-------------9-----------|-------------------| 
-------|-------|-------|--------7--L-------------|-------------------| 
-------|-------|-------|--/5--L------------------|-------------------| 
-------|-------|-------|-------------------------|-------------------| 


                                                            
----------------------------|-------------------|-------------------------| 
----------------------------|-------------------|----------------6--------| 
-------------9--9-5----L--L-|--L----------------|-------------9-----------| 
--------7--L----------------|-------------------|--------7--L-------------| 
--/5--L---------------------|-------------------|--/5--L------------------| 
----------------------------|-------------------|-------------------------| 


                                                           
-------------------|-------------------------|-----------------------| 
--L----------------|----------------6--------|--L----L--8-6-5--------| 
-------------------|-------------9-----------|-----------------------| 
-------------------|--------7--L-------------|-----------------------| 
-------------------|--/5--L------------------|-----------------------| 
-------------------|-------------------------|-----------------------| 


                                                            
-------------------------|-------------------|----------------------------| 
----------------6--------|--L----------------|----------------------------| 
-------------9-----------|-------------------|-------------9--9-5----L--L-| 
--------7--L-------------|-------------------|--------7--L----------------| 
--/5--L------------------|-------------------|--/5--L---------------------| 
-------------------------|-------------------|----------------------------| 


                                                           
-------------------|-------------------------|-------------------| 
-------------------|----------------6--------|--L----------------| 
--L----------------|-------------9-----------|-------------------| 
-------------------|--------7--L-------------|-------------------| 
-------------------|--/5--L------------------|-------------------| 
-------------------|-------------------------|-------------------| 


                                          P                                     
                                                              
-------------------------|--------------------------|--------------------------| 
----------------6--------|--L----L--8-6-------------|--------------------------| 
-------------9-----------|--------------<>8b--------|--7--7--7--7--7--7--7--7--| 
--------7--L-------------|--------------------------|--x--x--x--x--x--x--x--x--| 
--/5--L------------------|--------------------------|--5--5--5--5--5--5--5--5--| 
-------------------------|--------------------------|--------------------------| 


                                       
--------------------------|--------------------------| 
--------------------------|--------------------------| 
--7--7--7--7--7--7--7--7--|--9--9--9--9--9--9--9--9--| 
--x--x--x--x--x--x--x--x--|--x--x--x--x--x--x--x--x--| 
--5--5--5--5--5--5--5--5--|--7--7--7--7--7--7--7--7--| 
--------------------------|--------------------------| 


                                                       
----------------------------------|----------------------------------| 
----------------------------------|----------------------------------| 
--10--10--10--10--10--10--10--10--|--10--10--10--10--10--10--10--10--| 
---x---x---x---x---x---x---x---x--|---x---x---x---x---x---x---x---x--| 
---8---8---8---8---8---8---8---8--|---8---8---8---8---8---8---8---8--| 
----------------------------------|----------------------------------| 


                                                   
------------------------------|----------------------------------| 
------------------------------|----------------------------------| 
--10--10--10--10--9--9--9--9--|--10--10--10--10--10--10--10--14--| 
---x---x---x---x--x--x--x--x--|---x---x---x---x---x---x---x---x--| 
---8---8---8---8--7--7--7--7--|---8---8---8---8---8---8---8--12--| 
------------------------------|----------------------------------| 


                                           
------------------------------|--------------------------| 
------------------------------|--------------------------| 
--14--14--14--14--9--9--9--9--|--7--7--7--7--7--7--7--7--| 
---x---x---x---x--x--x--x--x--|--x--x--x--x--x--x--x--x--| 
--12--12--12--12--7--7--7--7--|--5--5--5--5--5--5--5--5--| 
------------------------------|--------------------------| 


                                       
--------------------------|--------------------------| 
--------------------------|--------------------------| 
--7--7--7--7--7--7--7--7--|--7--7--7--7--7--7--7--7--| 
--x--x--x--x--x--x--x--x--|--x--x--x--x--x--x--x--x--| 
--5--5--5--5--5--5--5--5--|--5--5--5--5--5--5--5--5--| 
--------------------------|--------------------------| 


                                               
--------------------------|----------------------------------| 
--------------------------|----------------------------------| 
--7--7--7--7--7--7--7--7--|--10--10--10--10--10--10--10--10--| 
--x--x--x--x--x--x--x--x--|---x---x---x---x---x---x---x---x--| 
--5--5--5--5--5--5--5--5--|---8---8---8---8---8---8---8---8--| 
--------------------------|----------------------------------| 


                                                   
------------------------------|----------------------------------| 
------------------------------|----------------------------------| 
--10--10--10--10--9--9--9--9--|--10--10--10--10--10--10--10--14--| 
---x---x---x---x--x--x--x--x--|---x---x---x---x---x---x---x---x--| 
---8---8---8---8--7--7--7--7--|---8---8---8---8---8---8---8--12--| 
------------------------------|----------------------------------| 


                                           
------------------------------|--------------------------| 
------------------------------|--------------------------| 
--14--14--14--14--9--9--9--9--|--7--7--7--7--7--7--7--7--| 
---x---x---x---x--x--x--x--x--|--x--x--x--x--x--x--x--x--| 
--12--12--12--12--7--7--7--7--|--5--5--5--5--5--5--5--5--| 
------------------------------|--------------------------| 


                                       
--------------------------|--------------------------| 
--------------------------|--------------------------| 
--7--7--7--7--7--7--7--7--|--9--9--9--9--9--9--9--9--| 
--x--x--x--x--x--x--x--x--|--x--x--x--x--x--x--x--x--| 
--5--5--5--5--5--5--5--5--|--7--7--7--7--7--7--7--7--| 
--------------------------|--------------------------| 


                                                       
----------------------------------|----------------------------------| 
----------------------------------|----------------------------------| 
--10--10--10--10--10--10--10--10--|--10--10--10--10--10--10--10--10--| 
---x---x---x---x---x---x---x---x--|---x---x---x---x---x---x---x---x--| 
---8---8---8---8---8---8---8---8--|---8---8---8---8---8---8---8---8--| 
----------------------------------|----------------------------------| 


                                                   
------------------------------|----------------------------------| 
------------------------------|----------------------------------| 
--10--10--10--10--9--9--9--9--|--10--10--10--10--10--10--10--14--| 
---x---x---x---x--x--x--x--x--|---x---x---x---x---x---x---x---x--| 
---8---8---8---8--7--7--7--7--|---8---8---8---8---8---8---8--12--| 
------------------------------|----------------------------------| 


                                           
------------------------------|--------------------------| 
------------------------------|--------------------------| 
--14--14--14--14--9--9--9--9--|--7--7--7--7--7--7--7--7--| 
---x---x---x---x--x--x--x--x--|--x--x--x--x--x--x--x--x--| 
--12--12--12--12--7--7--7--7--|--5--5--5--5--5--5--5--5--| 
------------------------------|--------------------------| 


                                       
--------------------------|--------------------------| 
--------------------------|--------------------------| 
--7--7--7--7--7--7--7--7--|--7--7--7--7--7--7--7--7--| 
--x--x--x--x--x--x--x--x--|--x--x--x--x--x--x--x--x--| 
--5--5--5--5--5--5--5--5--|--5--5--5--5--5--5--5--5--| 
--------------------------|--------------------------| 


                                               
--------------------------|----------------------------------| 
--------------------------|----------------------------------| 
--7--7--7--7--7--7--7--7--|--10--10--10--10--10--10--10--10--| 
--x--x--x--x--x--x--x--x--|---x---x---x---x---x---x---x---x--| 
--5--5--5--5--5--5--5--5--|---8---8---8---8---8---8---8---8--| 
--------------------------|----------------------------------| 


                                                   
------------------------------|----------------------------------| 
------------------------------|----------------------------------| 
--10--10--10--10--9--9--9--9--|--10--10--10--10--10--10--10--14--| 
---x---x---x---x--x--x--x--x--|---x---x---x---x---x---x---x---x--| 
---8---8---8---8--7--7--7--7--|---8---8---8---8---8---8---8--12--| 
------------------------------|----------------------------------| 


                                                              
------------------------------|-------------------|-------------------| 
------------------------------|-------------------|-------------------| 
--14--14--14--14--9--9--9--9--|--7----------------|--L----------------| 
---x---x---x---x--x--x--x--x--|--x----------------|-------------------| 
--12--12--12--12--7--7--7--7--|--5----------------|--L----------------| 
------------------------------|-------------------|-------------------| 


Guitar 4 

tarts at (03:03) 

                                                   
-------|----------------------------|-------------------| 
-------|------------------10--------|--L----------------| 
-------|--------------12------------|-------------------| 
-------|--------10--L---------------|-------------------| 
-------|--/8--L---------------------|-------------------| 
-------|----------------------------|-------------------| 


                                            
--------------------------------|-------------------| 
--------------------------------|-------------------| 
--------------12--12-10----L--L-|--L----------------| 
--------10--L-------------------|-------------------| 
--/8--L-------------------------|-------------------| 
--------------------------------|-------------------| 


                                                                  
----------------------------|-------------------|----------------------------| 
------------------10--------|--L----------------|------------------10--------| 
--------------12------------|-------------------|--------------12------------| 
--------10--L---------------|-------------------|--------10--L---------------| 
--/8--L---------------------|-------------------|--/8--L---------------------| 
----------------------------|-------------------|----------------------------| 


                                                                      
-------------------------|-----------|-----------|-----------|-----------| 
--L----L--10-8-----------|-----------|-----------|-----------|-----------| 
---------------10--------|-----------|-----------|-----------|-----------| 
-------------------------|-----------|-----------|-----------|-----------| 
-------------------------|-----------|-----------|-----------|-----------| 
-------------------------|-----------|-----------|-----------|-----------| 


-----------|-----------|-----------|-----------|-----------|-----------| 
-----------|-----------|-----------|-----------|-----------|-----------| 
-----------|-----------|-----------|-----------|-----------|-----------| 
-----------|-----------|-----------|-----------|-----------|-----------| 
-----------|-----------|-----------|-----------|-----------|-----------| 
-----------|-----------|-----------|-----------|-----------|-----------| 


-----------|-----------|-----------|-----------|-----------|-----------| 
-----------|-----------|-----------|-----------|-----------|-----------| 
-----------|-----------|-----------|-----------|-----------|-----------| 
-----------|-----------|-----------|-----------|-----------|-----------| 
-----------|-----------|-----------|-----------|-----------|-----------| 
-----------|-----------|-----------|-----------|-----------|-----------| 


-----------|-----------|-----------|-----------|-----------|-----------| 
-----------|-----------|-----------|-----------|-----------|-----------| 
-----------|-----------|-----------|-----------|-----------|-----------| 
-----------|-----------|-----------|-----------|-----------|-----------| 
-----------|-----------|-----------|-----------|-----------|-----------| 
-----------|-----------|-----------|-----------|-----------|-----------| 


                                                    
-----------|-----------|----------------------------------| 
-----------|-----------|----------------------------------| 
-----------|-----------|--10--10--10--10--10--10--10--10--| 
-----------|-----------|---x---x---x---x---x---x---x---x--| 
-----------|-----------|---8---8---8---8---8---8---8---8--| 
-----------|-----------|----------------------------------| 


                                                       
----------------------------------|----------------------------------| 
----------------------------------|----------------------------------| 
--10--10--10--10--10--10--10--10--|--12--12--12--12--12--12--12--12--| 
---x---x---x---x---x---x---x---x--|---x---x---x---x---x---x---x---x--| 
---8---8---8---8---8---8---8---8--|--10--10--10--10--10--10--10--10--| 
----------------------------------|----------------------------------| 


                                               
--------------------------|----------------------------------| 
--------------------------|----------------------------------| 
--9--9--9--9--9--9--9--9--|--10--10--10--10--10--10--10--10--| 
--x--x--x--x--x--x--x--x--|---x---x---x---x---x---x---x---x--| 
--7--7--7--7--7--7--7--7--|---8---8---8---8---8---8---8---8--| 
--------------------------|----------------------------------| 


                                                       
----------------------------------|----------------------------------| 
----------------------------------|----------------------------------| 
--10--10--10--10--12--12--12--12--|--10--10--10--10--10--10--10--14--| 
---x---x---x---x---x---x---x---x--|---x---x---x---x---x---x---x---x--| 
---8---8---8---8--10--10--10--10--|---8---8---8---8---8---8---8--12--| 
----------------------------------|----------------------------------| 


                                                              
------------------------------|-------------------|-------------------| 
------------------------------|-------------------|-------------------| 
--14--14--14--14--9--9--9--9--|--7----------------|--L----------------| 
---x---x---x---x--x--x--x--x--|--x----------------|-------------------| 
--12--12--12--12--7--7--7--7--|--5----------------|--L----------------| 
------------------------------|-------------------|-------------------| 
 
		  

See also:

tabs Bullet for my Valentine - Tears dont fall tabs Bullet for my Valentine - Army Of Noise tabs Bullet for my Valentine - Room 409 tabs Bullet for my Valentine - Dirty Little Secret tabs Bullet for my Valentine - Alone tabs Bullet for my Valentine - Tears Don't Fall (Acoustic)
e-chords

Other versions:

tabs Bon Jovi - Dirty little secret tabs iOTA - Dirty Little Secret tabs The All American Rejects - Dirty little secret tabs Bullet for my Valentine - Dirty Little Secret tabs Avril Lavigne - Dirty Little Secret tabs Pillar - Dirty Little Secret
auto scroll beats size up size down change color hide chords drawings
tab show chords e-chords YouTube Clip e-chords hide all tabs e-chords go to top tab

share