Bullet for my Valentine

Dead To The World

Bullet for my Valentine

tabs

by  LUCICAMARGO

save to print version add songbook text version e-mail correct tuner
chordsukulelecavacokeyboardtabbassdrumsharmonicaflute Guitar Pro
close

there isn't a video lesson for this song

chords

Dead To The World

	  		

Intro: PART 1 

guitar 1: 
e|-------*5----------------------*5------------------------------------------| 
B|----*7----------*7----------*7--------*7-----------------------------------| 
G|-*5----------*5----*7----*5---------*5---*7--------------------------------| 
D|---------------------------------------------------------------------------| 
A|---------------------------------------------------------------------------| 
E|---------------------------------------------------------------------------| 
  (0:00)       (0:04)      (0:09)     (0:13) 

guitar 2: 
e|---------------------------------------------------------------------------| 
B|---------------------------------------------------------------------------| 
G|---------------------------------------------------------------------------| 
D|---------------------------------------------------------------------------| 
A|--77777777777 keep repeating-33333333-55555555-777777777 keep repeating----| 
E|---------------------------------------------------------------------------| 
   (0:00)                      (0:06)   (0:08)   (0:09) 
    X------------------------------all palm muted-------------------------X 

e|---------------------------------------------------------------------------| 
B|---------------------------------------------------------------------------| 
G|---------------------------------------------------------------------------| 
D|---------------------------------------------------------------------------| 
A|-33333333-55555555---------------------------------------------------------| 
E|---------------------------------------------------------------------------| 
   (0:15)   (0:17) 
   x---palm muted---X 


Intro: PART 2 

guitar 1 
e|-15br12#------7h10-7#------------------------------------------------------| 
B|------------------------7h8#-b8#----------7h8p7---7h8p9---7h8-10p8-7h8-----| 
G|------------------------------------5/9#--------9-------9--------------9~~-| 
D|---------------------------------------------------------------------------| 
A|---------------------------------------------------------------------------| 
E|---------------------------------------------------------------------------| 
 (0:17)         (0:26)    (0:30)     (0:35) 

e|----------------------------------------------------------15p12-14p12------| 
B|------------------------------------------8-10-10/12-10~~------------15p12-| 
G|-2/4-4-4--2h4p2-----------------------6/9----------------------------------| 
D|----------------4-5-5-2h4-4/5-5/7-7/9--------------------------------------| 
A|---------------------------------------------------------------------------| 
E|---------------------------------------------------------------------------| 
  (0:41)                                                     (0:48) 

e|-17p12-15p12------19p12-15p12------17p12-15p12------15p14-----------------------| 
B|------------15p12------------15p12------------15p12------15---------------------| 
G|-----------------------------------------------------------14-------------------| 
D|--------------------------------------------------------------17p16h17p12-14----| 
A|--------------------------------------------------------------------------------| 
E|--------------------------------------------------------------------------------| 
  (0:49) 


Guitar 2 
e|-----2---------2---------2---------2---------------------------------------| 
B|----3-3-------3-3-------3-3-------3-3--------------------------------------| 
G|---0---0-----0---0-----0---0-----0---0-----0---0---------------------------| 
D|--4-----4---4-----4---4-----4---4-----4---4---4-4--------------------------| PLAY THROUGH TWICE 
A|-----------------------------------------3---5---5-------------------------| 
E|-0---------0---------0---------0-------------------------------------------| 
  (0:17)                                   (0:32) 
  (0:35)                                   (0:50) 


Verse: 

guitar 1 and 2 
e|-----2---------2---------------------------------------------------------| 
B|----3-3-------3-3--------------------------------------------------------| 
G|---0---0-----0---0----0--0-----------------------------------------------| 
D|--4-----4---4-----4--4--4------------------------------------------------|PLAY THROUGH FOUR TIMES 
A|--------------------3--5-------------------------------------------------| 
E|-0---------0----------------5-4------------------------------------------| 
  (0:52)              (0:59) 
  (1:01)              (1:07) 
  (1:10)              (1:16) 
  (1:18)              (1:25) 


Chorus: 

guitar 1 and 2 
e|-3-2#----3-2#----3-2#----3-2--3#-------------------------------------------| 
B|-3-3#----3-3#----3-3#----3-3--3#-------------------------------------------| 
G|---------------------------------------------------------------------------| 
D|---------------------------------------------------------------------------| 
A|---------------------------------------------------------------------------| 
E|---------------------------------------------------------------------------| 
  (1:27)  (1:31)  (1:36)  (1:40) 


PRE Verse: 

guitar 1 
e|------------------------------------------------------------------------------------------| 
B|---------8~~--7b8br7b8br7-0-----------10b12br10-8\7-8p7--------------7~-------8-7-8-8/10--| 
G|-5/9-9-7--------------------9-9-7-7h9-------------------9-7-9~~-x7-x9---x7-x9-------------| 
D|------------------------------------------------------------------------------------------| 
A|------------------------------------------------------------------------------------------| 
E|------------------------------------------------------------------------------------------| 
    (1:45) 

e|---------------------------------------------------------------------------| 
B|-10b12br10-8\7-8p7-------10-10h12p10\7-8-7b8br7----------------------------| 
G|--------------------9-7--------------------------7-7h9~~-------------------| 
D|---------------------------------------------------------------------------| 
A|---------------------------------------------------------------------------| 
E|---------------------------------------------------------------------------| 
  (1:58) 



Bridge: Part 1 

guitar 1 
e|------------------------------------------------------------------------------------------| 
B|------------------------------------------------------------------------------------------| 
G|------------------------------------------------------------------------------------------| 
D|-2~--2-2---2~--2-2--2~--2-2-------2-2-2-2-2-2-2-2-2-2-2-2-2-2-2-2-2-2~------2~------------| 
A|-2~--2-2---2~--2-2--2~--2-2-------2-2-2-2-2-2-2-2-2-2-2-2-2-2-2-2-2-2~------2~------------| 
E|-2~--2-2---2~--2-2--2~--2-2-------2-2-2-2-2-2-2-2-2-2-2-2-2-2-2-2-2-2~------2~------------| 
  (2:54)                            (3:08) 
             FIGURE OUT PALM MUTING 

guitar 2 
e|----2-------------2-------------2------------------------------------------| 
B|---3-3-----------3-3-----------3-3-----------------------------------------| 
G|--0---0---------0---0---------0---0----------------------------------------| 
D|-4-----4-------4-----4-------4-----4---------------------------------------| 
A|---------------------------------------------------------------------------| 
E|---------------------------------------------------------------------------| 
  (2:57)        (3:01)        (3:06) 


Bridge: PART 2 

guitar 1 and 2 
e|--------------------------------------------------------------------------------------| 
B|--------------------------------------------------------------------------------------| 
G|--------------------------------------------------------------------------------------| 
D|-----------------------------9-9-9-5-5-5----------------------------------------------| 
A|-3p0-3p0-------------3p0-3p0-------------8-8-8-8---3p0-3p0------------3p0-3p0---------| 
E|-3p0-3p0--000000-5-7-3p0-3p0-----------------------3p0-3p0-000000-5-7-3p0-3p0-4/8-5---| 
   (3:21)                                            (3:26) 
            x-PM-X             X----palm mute----x           x-PM-X 

e|--------------------------------------------------------------------------------------| 
B|--------------------------------------------------------------------------------------| 
G|--------------------------------------------------------------------------------------| 
D|-----------------------------9-9-9-5-5-5----------------------------------------------| 
A|-3p0-3p0-------------3p0-3p0-------------8-8-8-8---3p0-3p0------------3p0-3p0---------| 
E|-3p0-3p0--000000-5-7-3p0-3p0-----------------------3p0-3p0-000000-5-7-3p0-3p0-4/8-5---| 
   (3:30)                                            (3:34) 
            x-PM-X             X----palm mute----x           x-PM-X 

e|---------------------------------------------------------------------------| 
B|---------------------------------------------------------------------------| 
G|---------------------------------------------------------------------------| 
D|-9-7-7/9~~--7-5-5/7~~--5-5-5~~----7-5-5/7~~---7-7-7------------------------| 
A|-7-5-5/7~~--5-3-3/5~~--3-2-2/3~~--5-3-3/5~~---5-5-5------------------------| 
E|---------------------------------------------------------------------------| 

  (3:39)                            (3:45)      X-PM-X 


guitar 1 
e|---------------------------------------------------------------------------| 
B|---------------------------------------------------------------------------| 
G|---------------------------------------------------------------------------| 
D|--9-7-7h9~~---10-9-9h10~~--12-10-10/12~~--10-9-7~~-------------------------| 
A|---------------------------------------------------------------------------| 
E|---------------------------------------------------------------------------| 
   (3:48)                    (3:52) 
guitar 2  
e|---------------------------------------------------------------------------| 
B|---------------------------------------------------------------------------| 
G|---------------------------------------------------------------------------| 
D|---------------------------------------------------------------------------| 
A|-7-5-5/7~~--10-9-9/10~~--12-10-10/12~~--10-9-7~~---------------------------| 
E|---------------------------------------------------------------------------| 
  (3:48)                   (3:52) 



Solo: 

guitar 1 
e|----------------------------14h15h17---18b-18181818-151515-181818b--19-15--15------------| 
B|----------14h15h17-14h15h17----------------------------------------------17--17----------| 
G|-14h15h17-------------------------------------------------------------------------16-15--| 
D|-----------------------------------------------------------------------------------------| 
A|-----------------------------------------------------------------------------------------| 
E|-----------------------------------------------------------------------------------------| 
  (3:56)                                     {---tremelo picking---} 

e|-19-19-19-15-15-15-18-18-18-14-14-14-17-17-15-15-19-19-19-15-15-15-18-18-202020-181818-15\----| 
B|----------------------------------------------------------------------------------------------| 
G|----------------------------------------------------------------------------------------------| 
D|----------------------------------------------------------------------------------------------| 
A|----------------------------------------------------------------------------------------------| 
E|----------------------------------------------------------------------------------------------| 
 (4:01)                                                                    {tremelo picking) 

e|-----------------------------------------------------------------------------------| 
B|-----------------------------------------------------------------------------------| 
G|-16-14-12-14-16-14-12-14-16-14-12-14-16-14-12-14--14b16-12b14-14b16-12b14----------| 
D|-------------------------------------------------------------------------14b16-----| 
A|-----------------------------------------------------------------------------------| 
E|-----------------------------------------------------------------------------------| 
   (4:05) 
  {--------tremelo picking each note--------------} 

e|--------------------------------------------------------17-19-20----------------------------| 
B|---------------------------------------------15-17-18/20--------20--------------15-17-18----| 
G|---------14-15-17----------15-17-18-15-17-18----------------------19-17-15-17-18------------| 
D|-14-15-17---------15-17-18------------------------------------------------------------------| 
A|--------------------------------------------------------------------------------------------| 
E|--------------------------------------------------------------------------------------------| 
  (4:10) 
e|---------17-19-20-15--20p15------15-20p15----------------------------------| 
B|-17-19-20------------------16--16--------16--16--19~~----------------------| 
G|-----------------------------15------------15------------------------------| 
D|---------------------------------------------------------------------------| 
A|---------------------------------------------------------------------------| 
E|---------------------------------------------------------------------------| 
                        (4:13) 
                        {----sweep picking-------} 

Guitar 2 plays the beginning part of the Bridge:PART 2 throughout the solo 


OUTRO 

guitar 1 and 2 
e|--------------------------------------------------------------------------------------| 
B|--------------------------------------------------------------------------------------| 
G|--------------------------------------------------------------------------------------| 
D|-----------5-5-5-5~--7-7-7-7~--5-5-5-5-5-5-----------5-5-5-5~--7-7-7-7~--5-5-5-5-5-5--| 
A|-2-2-2-2~--5-5-5-5~--5-5-5-5~--3-3-3-2-2-2-2-2-2-2~--5-5-5-5~--5-5-5-5~--3-3-3-2-2-2--| 
E|-2-2-2-2~--5-5-5-5~--0-0-0-0~--------------2-2-2-2~--5-5-5-5~--0-0-0-0~---------------| 
  (4:14)                                     (4:23) 


e|--------------------------------------------------------------------------------------| 
B|--------------------------------------------------------------------------------------| 
G|--------------------------------------------------------------------------------------| 
D|-----------5-5-5-5~--7-7-7-7~--5-5-5-5-5-5-----------5-5-5-5~--7-7-7-7~--5-5-5-5-5-5--| 
A|-2-2-2-2~--5-5-5-5~--5-5-5-5~--3-3-3-2-2-2-2-2-2-2~--5-5-5-5~--5-5-5-5~--3-3-3-2-2-2--| 
E|-2-2-2-2~--5-5-5-5~--0-0-0-0~--------------2-2-2-2~--5-5-5-5~--0-0-0-0~---------------| 
  (4:32)                                     (4:40) 
                                                                                  x-PM-X 

e|---------------------------------------------------------------------------| 
B|---------------------------------------------------------------------------| 
G|---------------------------------------------------------------------------| 
D|-5-5-5-5-5-5-5-5-5-5-5-5-5-2#----------------------------------------------| 
A|-3-3-3-2-2-2-3-3-3-2-2-3-2-2#----------------------------------------------| 
E|---------------------------2#----------------------------------------------| 
  (4:50)              
         X-PM-X      X--PM--X 

 
		  

See also:

tabs Bullet for my Valentine - Tears dont fall tabs Bullet for my Valentine - Army Of Noise tabs Bullet for my Valentine - Room 409 tabs Bullet for my Valentine - Dirty Little Secret tabs Bullet for my Valentine - Alone tabs Bullet for my Valentine - Tears Don't Fall (Acoustic)
e-chords

Other versions:

tabs Nightwish - Dead To The World tabs Bullet for my Valentine - Dead To The World
auto scroll beats size up size down change color hide chords drawings
tab show chords e-chords YouTube Clip e-chords hide all tabs e-chords go to top tab

share