Bullet for my Valentine

Army Of Noise

Bullet for my Valentine

tabs

by  BOMBAXXX

save to print version add songbook text version e-mail correct tuner
chordsukulelecavacokeyboardtabbassdrumsharmonicaflute Guitar Pro
close

there isn't a video lesson for this song

chords

Army Of Noise

	  		Intro: (0:00 - 0:23) 

Guitar 1 

   1   &   2   &   3   &   4   &     1   &   2   &   3   &   4   & 
D|---------------------------------|---------------------------------| 
A|---------------------------------|---------------------------------| 
F|---------------------------------|---------------------------------| 
C|---------------------------------|---------------------------------| 
G|---------------------------------|---------------------------------| 
C|-7p0-0-0-0-0-0-0-0-0-0-0-0-0-3p0h|-2p0-0-0-0-0-0-0-0-0-0-0-0-0-0-0-| 
       . . . . . . . . . . . .           . . . . . . . . . . . . . .   

   1   &   2   &   3   &   4   &     1   &   2   &   3   &   4   & 
D|---------------------------------|---------------------------------| 
A|---------------------------------|---------------------------------| 
F|---------------------------------|---------------------------------| 
C|---------------------------------|---------------------------------| 
G|---------------------------------|-----------------3-------5-------| 
C|-7p0-0-0-0-0-0-0-0-0-0-0-0-0-3p0h|-2p0-0-0-0-0-0-0-3-------5-------| 
       . . . . . . . . . . . .           . . . . . .   

   1   &   2   &   3   &   4   &     1   &   2   &   3   &   4   & 
D|---------------------------------|---------------------------------| 
A|---------------------------------|---------------------------------| 
F|---------------------------------|---------------------------------| 
C|---------------------------------|---------------------------------| 
G|---------------------------------|---------------------------------| 
C|-7p0-0-0-0-0-0-0-0-0-0-0-0-0-7p0h|-6p0-0-0-0-0-0-0-0-0-0-0-0-0-3p0h| 
       . . . . . . . . . . . .           . . . . . . . . . . . .       

   1   &   2   &   3   &   4   &     1   &   2   &   3   &   4   & 
D|---------------------------------|---------------------------------| 
A|---------------------------------|---------------------------------| 
F|---------------------------------|---------------------------------| 
C|---------------------------------|---------------------------------| 
G|---------------------------------|-----------------8-------10------| 
C|-2p0-0-0-0-0-0-0-0-0-0-0-0-0-7p0h|-6p0-0-0-0-0-0-0-8-------10------| 
       . . . . . . . . . . . .           . . . . . .    

Guitar 2 

   1   &   2   &   3   &   4   &     1   &   2   &   3   &   4   & 
D|---------------------------------|---------------------------------| 
A|---------------------------------|---------------------------------| 
F|--------(RANDOM NOISES AND PINCH HARMONICS AND WHAMMY BARS)--------| x4 
C|---------------------------------|---------------------------------| 
G|---------------------------------|---------------------------------| 
C|---------------------------------|---------------------------------| 

Guitars 1 and 2 

   1   &   2   &   3   &   4   &     1   &   2   &   3   &   4   & 
D|---------------------------------|---------------------------------| 
A|---------------------------------|---------------------------------| 
F|---------------------------------|---------------------------------| 
C|---------------------------------|---------------------------------| 
G|---------------------------------|---------------------------------| 
C|-7p0-0-0-0-0-0-0-0-0-0-0-0-0-7p0h|-6p0-0-0-0-0-0-0-0-0-0-0-0-0-3p0h| 
       . . . . . . . . . . . .           . . . . . . . . . . . .   
       
   1   &   2   &   3   &   4   &     1   &   2   &   3   &   4   & 
D|---------------------------------|---------------------------------| 
A|---------------------------------|---------------------------------| 
F|---------------------------------|---------------------------------| 
C|---------------------------------|---------------------------------| 
G|---------------------------------|-----------------3-------5-------| 
C|-2p0-0-0-0-0-0-0-0-0-0-0-0-0-7p0h|-6p0-0-0-0-0-0-0-3-------5-------| 
       . . . . . . . . . . . .           . . . . . .    

   1   &   2   &   3   &   4   &     1   &   2   &   3   &   4   & 
D|---------------------------------|---------------------------------| 
A|---------------------------------|---------------------------------| 
F|---------------------------------|---------------------------------| 
C|---------------------------------|---------------------------------| 
G|---------------------------------|---------------------------------| 
C|-7p0-0-0-0-0-0-0-0-0-0-0-0-0-7p0h|-6p0-0-0-0-0-0-0-0-0-0-0-0-0-3p0h| 
       . . . . . . . . . . . .           . . . . . . . . . . . .   
       
   1   &   2   &   3   &   4   &     1   &   2   &   3   &   4   & 
D|---------------------------------|---------------------------------| 
A|---------------------------------|---------------------------------| 
F|---------------------------------|---------------------------------| 
C|---------------------------------|---------------------------------| 
G|---------------------------------|-----------------8-------10------| 
C|-2p0-0-0-0-0-0-0-0-0-0-0-0-0-7p0h|-6p0-0-0-0-0-0-0-8-------10------| 
       . . . . . . . . . . . .           . . . . . .    



verse 1 (0:23 - 0:52) 

Guitars 1 and 2 

   1   &   2   &   3   &   4   &     1   &   2   &   3   &   4   & 
D|---------------------------------|---------------------------------| 
A|---------------------------------|---------------------------------| 
F|---------------------------------|---------------------------------| 
C|---------------------------------|---------------------------------| 
G|---------------------------------|---------------------------------| 
C|-7p0-0-0-0-0-0-0-0-0-0-0-0-0-0-0-|-0-0-0-0-0-0-0-0-0-0-0-0-0-0-0-0-| 
       . . . . . . . . . . . . . .   . . . . . . . . . . . . . . . .  
Anticipation, we're on the attack.       

   1   &   2   &   3   &   4   &     1   &   2   &   3   &   4   & 
D|---------------------------------|---------------------------------| 
A|---------------------------------|---------------------------------| 
F|---------------------------------|---------------------------------| 
C|---------------------------------|---------------------------------| 
G|---------------------------------|-----------------3-------5-------| 
C|-0-0-0-0-0-0-0-0-0-0-0-0-0-0-0-0-|-0-0-0-0-0-0-0-0-3-------5-------| 
   . . . . . . . . . . . . . . . .   . . . . . . . .   
Just keep pushing forward... 

   1   &   2   &   3   &   4   &     1   &   2   &   3   &   4   & 
D|---------------------------------|---------------------------------| 
A|---------------------------------|---------------------------------| 
F|---------------------------------|---------------------------------| 
C|---------------------------------|---------------------------------| 
G|---------------------------------|---------------------------------| 
C|-0-0-0-0-0-0-0-0-0-0-0-0-0-0-0-0-|-0-0-0-0-0-0-0-0-0-0-0-0-0-0-0-0-| 
   . . . . . . . . . . . . . . . .   . . . . . . . . . . . . . . . . 
There is a tension...  
       
   1   &   2   &   3   &   4   &     1   &   2   &   3   &   4   & 
D|---------------------------------|---------------------------------| 
A|---------------------------------|---------------------------------| 
F|---------------------------------|---------------------------------| 
C|---------------------------------|---------------------------------| 
G|---------------------------------|-----------------8-------10------| 
C|-0-0-0-0-0-0-0-0-0-0-0-0-0-0-0-0-|-0-0-0-0-0-0-0-0-8-------10------| 
   . . . . . . . . . . . . . . . .   . . . . . . . .  
So take a deep breath...  

   1   &   2   &   3   &   4   &     
D|---------------------------------| 
A|---------------------------------| 
F|---------------------------------| 
C|---------------------------------| 
G|-5---5-5-6---6-6-7---------------| 
C|-5---5-5-6---6-6-7-------12\-----| 
   .   . . .   . .   

   1   &   2   &   3   &   4   &     1   &   2   &   3   &   4   & 
D|---------------------------------|---------------------------------| 
A|---------------------------------|---------------------------------| 
F|---------------------------------|---------------------------------| 
C|---------------------------------|---------------------------------| 
G|---------------------------------|---------------------------------| 
C|-7p0-0-0-0-0-0-0-0-0-0-0-0-0-7p0h|-6p0-0-0-0-0-0-0-0-0-0-0-0-0-3p0h| 
       . . . . . . . . . . . .           . . . . . . . . . . . .   
LIGHTS OUT! 

   1   &   2   &   3   &   4   &     1   &   2   &   3   &   4   & 
D|---------------------------------|---------------------------------| 
A|---------------------------------|---------------------------------| 
F|---------------------------------|---------------------------------| 
C|---------------------------------|---------------------------------| 
G|---------------------------------|-----------------3-------5-------| 
C|-2p0-0-0-0-0-0-0-0-0-0-0-0-0-7p0h|-6p0-0-0-0-0-0-0-3-------5-------| 
       . . . . . . . . . . . .           . . . . . .    
Adrenaline rushing... 

   1   &   2   &   3   &   4   &     1   &   2   &   3   &   4   & 
D|---------------------------------|---------------------------------| 
A|---------------------------------|---------------------------------| 
F|---------------------------------|---------------------------------| 
C|---------------------------------|---------------------------------| 
G|---------------------------------|---------------------------------| 
C|-7p0-0-0-0-0-0-0-0-0-0-0-0-0-7p0h|-6p0-0-0-0-0-0-0-0-0-0-0-0-0-3p0h| 
       . . . . . . . . . . . .           . . . . . . . . . . . .   
Now feel the heat... 
       
   1   &   2   &   3   &   4   &     1   &   2   &   3   &   4   & 
D|---------------------------------|---------------------------------| 
A|---------------------------------|---------------------------------| 
F|---------------------------------|---------------------------------| 
C|---------------------------------|---------------------------------| 
G|---------------------------------|-----------------8-------10------| 
C|-2p0-0-0-0-0-0-0-0-0-0-0-0-0-7p0h|-6p0-0-0-0-0-0-0-8-------10------| 
       . . . . . . . . . . . .           . . . . . .    
Bodies are thrashing... 

   1   &   2   &   3   &   4   &     1   &   2   &   3   &   4   & 
D|---------------------------------|---------------------------------| 
A|---------------------------------|---------------------------------| 
F|---------------------------------|---------------------------------| 
C|---------------------------------|---------------------------------| 
G|-8---8-8-8-8-8~----------8~------|-8---8-8-8-8-8~----------8~------| 
C|-8---8-8-8-8-8~----------8~------|-8---8-8-8-8-8~----------8~------| 
       . . . .                           . . . . 
                           We're gonna watch it... 

   1   &   2   &   3   &   4   &     1   &   2   &   3   &   4   & 
D|---------------------------------|---------------------------------| 
A|---------------------------------|---------------------------------| 
F|---------------------------------|---------------------------------| 
C|---------------------------------|---------------------------------| 
G|-7---7-7-7-7-7~----------7~------|-6---6-6-6-6-6~----------6~------| 
C|-7---7-7-7-7-7~----------7~------|-6---6-6-6-6-6~----------6~------| 
       . . . .                           . . . . 
...burn.                             Let it turn to dust. 




Pre-Chorus (0:52 - 1:03) 

Guitar 1 

   1   &   2   &   3   &   4   &     1   &   2   &   3   &   4   & 
D|---------------------------------|---------------------------------| 
A|---------------------------------|---------------------------------| 
F|-7---7---7---7---7---7---7---7---|-7---7---7---7---7---7---7---7---| 
C|-x---x---x---x---x---x---x---x---|-x---x---x---x---x---x---x---x---| 
G|-5---5---5---5---5---5---5---5---|-5---5---5---5---5---5---5---5---| 
C|---------------------------------|---------------------------------| 

                                     Behold the madness 

   1   &   2   &   3   &   4   &     1   &   2   &   3   &   4   & 
D|---------------------------------|---------------------------------| 
A|---------------------------------|---------------------------------| 
F|-8---8---8---8---8---8---8---8---|-8---8---8---8---8---8---8---8---| 
C|-x---x---x---x---x---x---x---x---|-x---x---x---x---x---x---x---x---| 
G|-5---5---5---5---5---5---5---5---|-5---5---5---5---5---5---5---5---| 
C|---------------------------------|---------------------------------| 

Such a beautiful sight 

   1   &   2   &   3   &   4   &     1   &   2   &   3   &   4   & 
D|---------------------------------|---------------------------------| 
A|-6---6---6---6---6---6---6---6---|-6---6---6---6---6---6---6---6---| 
F|-x---x---x---x---x---x---x---x---|-x---x---x---x---x---x---x---x---| 
C|-x---x---x---x---x---x---x---x---|-x---x---x---x---x---x---x---x---| 
G|-5---5---5---5---5---5---5---5---|-5---5---5---5---5---5---5---5---| 
C|---------------------------------|---------------------------------| 

                      It will never get old 

   1   &   2   &   3   &   4   &     1   &   2   &   3   &   4   & 
D|---------------------------------|---------------------------------| 
A|-8---8---8---8---8---8---8---8---|---------------------------------| 
F|-x---x---x---x---x---x---x---x---|---------------------------------| 
C|-x---x---x---x---x---x---x---x---|---------------------------------| 
G|-5---5---5---5---5---5---5---5---|-6---5---3-------3---------------| 
C|---------------------------------|-------------6-------5---6---3---| 

                              Here's to chaos tonight 
                                       Soooooooooooo 

Guitar 2 

   1   &   2   &   3   &   4   &     1   &   2   &   3   &   4   & 
D|---------------------------------|---------------------------------| 
A|------(Make sure those vibratos are sexy)--------------------------| 
F|---------------------------------|---------------------------------| 
C|---------------------------------|---------------------------------| 
G|-3-----------5~------------------|-3-----------5~------------------| 
C|-----0---0---------------0---0---|-----0---0---------------0---0---| 
       .   .               .   .         .   .               .   . 
                                     Behold the madness 

   1   &   2   &   3   &   4   &     1   &   2   &   3   &   4   & 
D|---------------------------------|---------------------------------| 
A|---------------------------------|---------------------------------| 
F|---------------------------------|---------------------------------| 
C|---------------------------------|---------------------------------| 
G|-3-----------6~------------------|-3-----------6~------------------| 
C|-----0---0---------------0---0---|-----0---0---------------0---0---| 
       .   .               .   .         .   .               .   . 
Such a beautiful sight 

   1   &   2   &   3   &   4   &     1   &   2   &   3   &   4   & 
D|---------------------------------|---------------------------------| 
A|---------------------------------|---------------------------------| 
F|---------------------------------|---------------------------------| 
C|---------------------------------|---------------------------------| 
G|-3-----------8~------------------|-3-----------8~------------------| 
C|-----0---0---------------0---0---|-----0---0---------------0---0---| 
       .   .               .   .         .   .               .   . 
                      It will never get old 

   1   &   2   &   3   &   4   &     1   &   2   &   3   &   4   & 
D|---------------------------------|---------------------------------| 
A|---------------------------------|---------------------------------| 
F|---------------------------------|---------------------------------| 
C|---------------------------------|---------------------------------| 
G|-3-----------5~------------------|-6---5---3-------3---------------| 
C|-----0---0---------------0---0---|-------------6-------5---6---3---| 
       .   .               .   . 
                              Here's to chaos tonight 
                                       Soooooooooooo 



Chorus (1:03 - 1:27) 

Guitars 1 and 2 

   1   &   2   &   3   &   4   &     1   &   2   &   3   &   4   & 
D|---------------------------------|---------------------------------| 
A|----------(Vibratos = sexy here too)-------------------------------| 
F|---------------------------------|---------------------------------| 
C|---------------------------------|---------------------------------| 
G|-------------6-------3---5~------|---------------------------------|---| 
C|-0---0-0-0-----------------------|-0---0-0-0---0---0-0-0---0-0-0---|   | 
   .   . . .                         .   . . .   .   . . .   . . .       | 
SO! Here we are.                                                         | 
                                                                         | 
   1   &   2   &   3   &   4   &     1   &   2   &   3   &   4   &       | 
D|---------------------------------|---------------------------------|   | 
A|-----------(But pinch harmonics are even sexier)-------------------|   | 
F|---------------------------------|---------------------------------|   | 
C|---------------------------------|---------------------------------|   | 
G|-------------6-------3---5*~-----|---------------------------------|   | 
C|-0---0-0-0-----------------------|-5---5-5-6---6-6-7---7-7-8---8-8-|   | 
   .   . . .                         .   . . .   . . .   . . .   . .     | 
Weapons in arms.                                                         | 
                                                                         | x2 
   1   &   2   &   3   &   4   &     1   &   2   &   3   &   4   &       | 
D|---------------------------------|---------------------------------|   | 
A|---------------------------------|---------------------------------|   | 
F|---------------------------------|---------------------------------|   | 
C|---------------------------------|---------------------------------|   | 
G|-------------6-------3---5~------|---------------------------------|   | 
C|-0---0-0-0-----------------------|-0---0-0-0---0---0-0-0---0-0-0---|   | 
   .   . . .                         .   . . .   .   . . .   . . .       | 
Army of Noise                                                            | 
                                                                         | 
   1   &   2   &   3   &   4   &     1   &   2   &   3   &   4   &       | 
D|---------------------------------|---------------------------------|   | 
A|-------------------------------------------------------------------|---| 
F|---------------------------------|---------------------------------| 
C|---------------------------------|---------------------------------| 
G|-------------6-------3---5~------|---------------------------------| 
C|-0---0-0-0-----------------------|-5---5-5-6---6-6-3---3-3-5---5-5-| 
   .   . . .                         .   . . .   . . .   . . .   . .  
Has come to destroy. 

   1   &   2   &   3   &   4   &     
D|---------------------------------| 
A|---------------------------------| 
F|---------------------------------| 
C|---------------------------------| 
G|---------------------------------| 
C|-5-5-5-5-6-6-6-6-3-3-3-3-1-1-1-1-| 

...noooiiiiise. 



Pre-Verse (1:27 - 1:32) 

Guitar 1 

   1   &   2   &   3   &   4   &     1   &   2   &   3   &   4   & 
D|---------------------------------|---------------------------------| 
A|---------------------------------|---------------------------------| 
F|---------------------------------|---------------------------------| 
C|---------------------------------|---------------------------------| 
G|---------------------------------|---------------------------------| 
C|-7p0-0-0-0-0-0-0-0-0-0-0-0-0-7p0h|-6p0-0-0-0-0-0-0-0-0-0-0-0-0-3p0h| 
       . . . . . . . . . . . .           . . . . . . . . . . . .       

   1   &   2   &   3   &   4   &     1   &   2   &   3   &   4   & 
D|---------------------------------|---------------------------------| 
A|---------------------------------|---------------------------------| 
F|---------------------------------|---------------------------------| 
C|---------------------------------|---------------------------------| 
G|---------------------------------|-----------------8-------10------| 
C|-2p0-0-0-0-0-0-0-0-0-0-0-0-0-7p0h|-6p0-0-0-0-0-0-0-8-------10------| 
       . . . . . . . . . . . .           . . . . . .    

Guitar 2 

   1   &   2   &   3   &   4   &     1   &   2   &   3   &   4   & 
D|---------------------------------|---------------------------------| 
A|---------------------------------|---------------------------------| 
F|---------------------------------|---------------------------------| 
C|---------------------------------|---------------------------------| 
G|---------------------------------|---------------------------------| 
C|-0---------------------------7p0h|-6p0-------------------------3p0h|  

   1   &   2   &   3   &   4   &     1   &   2   &   3   &   4   & 
D|---------------------------------|---------------------------------| 
A|---------------------------------|---------------------------------| 
F|---------------------------------|---------------------------------| 
C|---------------------------------|---------------------------------| 
G|---------------------------------|-----------------8-------10------| 
C|-2p0-------------------------7p0h|-6p0-------------8-------10------| 



verse 2 (1:32 - 2:01) - Same as verse 1 

Pre-Chorus (2:01 - 2:12) 

Chorus (2:12 - 2:36) 



Breakdown (2:36 - 3:01) 

Guitars 1 and 2 

   1   &   2   &   3   &   4   &     1   &   2   &   3   &   4   & 
D|---------------------------------|---------------------------------| 
A|---------------------------------|---------------------------------| 
F|---------------------------------|---------------------------------| 
C|-0~------------------------------|-------------------------8---0~--| 
G|-0~------------------------------|-------------------------8---0~--| 
C|-0~------------------------------|-------------------------8---0~--| 

   1   &   2   &   3   &   4   &     1   &   2   &   3   &   4   & 
D|---------------------------------|---------------------------------| 
A|---------------------------------|---------------------------------| 
F|---------------------------------|---------------------------------| 
C|---------------------------------|-------------------------1---0~--| 
G|---------------------------------|-------------------------1---0~--| 
C|---------------------------------|-------------------------1---0~--| 

   1   &   2   &   3   &   4   &     1   &   2   &   3   &   4   & 
D|---------------------------------|---------------------------------| 
A|---------------------------------|---------------------------------| 
F|---------------------------------|---------------------------------| 
C|---------------------------------|---------------------------------| 
G|---------------------------------|-----------------0---6---7---8~--| 
C|---------------------------------|-----------------0---6---7---8~--| 
                                                     .   .   .    

   1   &   2   &   3   &   4   &     1   &   2   &   3   &   4   & 
D|---------------------------------|---------------------------------| 
A|---------------------------------|---------------------------------| 
F|---------------------------------|---------------------------------| 
C|---------------------------------|---------------------------------| 
G|-----------------8---8---7---6~--|-----------------6---7---8---0---| 
C|-----------------8---8---7---6~--|-----------------6---7---8---0---| 
                   .   .   .                         .   .   . 

   1   &   2   &   3   &   4   &     1   &   2   &   3   &   4   & 
D|---------------------------------|---------------------------------| 
A|---------------------------------|---------------------------------| 
F|-----(BANG THOSE HEADS!!!!)------|---------------------------------| 
C|---------------------------------|---------------------------------| 
G|---------------------------------|-----------------0---0---1---0---| 
C|-----0---0-0-0-------0---0-0-0---|-0-0-0---0-0-0---0---0---1---0---| 
       .   . .         .   . . .     . . .   . . .   .   .   . 

   1   &   2   &   3   &   4   &     1   &   2   &   3   &   4   & 
D|---------------------------------|---------------------------------| 
A|---------------------------------|---------------------------------| 
F|-----------------(The harder you hit this harmonic, the better)----| 
C|-----------------(Also, only one guitar plays the harmonic)--------| 
G|---------------------------------|-----------------0---0---1---0---| 
C|-----0---0-0-0---3+~~~~~~~~~~~~~~|~~~~~~~~~~~~~~~~~0---0---1---0---| 
       .   . .                                       .   .   . 

   1   &   2   &   3   &   4   &     1   &   2   &   3   &   4   & 
D|---------------------------------|---------------------------------| 
A|---------------------------------|---------------------------------| 
F|---------------------------------|---------------------------------| 
C|---------------------------------|---------------------------------| 
G|---------------------------------|-----------------0---6---7---8~--| 
C|-----0---0-0-0-------0---0-0-0---|-0-0-0---0-0-0---0---6---7---8~--| 
       .   . .         .   . . .     . . .   . . .   .   .   .      

   1   &   2   &   3   &   4   &     1   &   2   &   3   &   4   & 
D|---------------------------------|---------------------------------| 
A|---------------------------------|---------------------------------| 
F|---------------------------------|---------------------------------| 
C|---------------------------------|---------------------------------| 
G|-----------------8---8---7---6~--|-----------------6---7---8-------| 
C|-----------------8---8---7---6~--|-----------------6---7---8-------| 
                   .   .   .                         .   .    



Solo (3:01 - 3:34) 

Guitar 1 

   1   &   2   &   3   &   4   &     1   &   2   &   3   &   4   & 
D|---------------------------------|---------------------------------| 
A|---------------------------------|---------------------------------| 
F|---------------------------------|---------------------------------| 
C|---------------------------------|---------------------------------| 
G|---------------------------------|-----------------6---5---3---5---| 
C| 7p0-0-0-0-0-0-0-0-0-0-0-0-0-7p0h|-6p0-0-0-0-0-0-0-6---5---3---5---| 
       . . . . . . . . . . . .           . . . . . . 

   1   &   2   &   3   &   4   &     1   &   2   &   3   &   4   & 
D|---------------------------------|---------------------------------| 
A|---------------------------------|---------------------------------| 
F|---------------------------------|---------------------------------| 
C|---------------------------------|---------------------------------| 
G|---------------------------------|-----------------1-------1-------| 
C| 7p0-0-0-0-0-0-0-0-0-0-0-0-0-7p0h|-6p0-0-0-0-0-0-0-1-------1-------| 
       . . . . . . . . . . . .           . . . . . . 

   1   &   2   &   3   &   4   &     1   &   2   &   3   &   4   & 
D|---------------------------------|---------------------------------| 
A|---------------------------------|---------------------------------| 
F|---------------------------------|---------------------------------| 
C|---------------------------------|---------------------------------| 
G|---------------------------------|-----------------6---5---3---5---| 
C| 7p0-0-0-0-0-0-0-0-0-0-0-0-0-7p0h|-6p0-0-0-0-0-0-0-6---5---3---5---| 
       . . . . . . . . . . . .           . . . . . . 

   1   &   2   &   3   &   4   &     1   &   2   &   3   &   4   & 
D|---------------------------------|---------------------------------| 
A|---------------------------------|---------------------------------| 
F|---------------------------------|---------------------------------| 
C|---------------------------------|---------------------------------| 
G|-6---6-6-6-6-6~----------6~------|-5---5-5-5-5-5---5---3---5---7---| 
C|-6---6-6-6-6-6~----------6~------|-5---5-5-5-5-5---5---3---5---7---| 
       . . . .                           . . . . 

   1   &   2   &   3   &   4   &     1   &   2   &   3   &   4   & 
D|---------------------------------|---------------------------------| 
A|---------------------------------|---------------------------------| 
F|---------------------------------|---------------------------------| 
C|---------------------------------|---------------------------------| 
G|---------------------------------|-----------------6---5---3---5---| 
C| 7p0-0-0-0-0-0-0-0-0-0-0-0-0-7p0h|-6p0-0-0-0-0-0-0-6---5---3---5---| 
       . . . . . . . . . . . .           . . . . . . 

   1   &   2   &   3   &   4   &     1   &   2   &   3   &   4   & 
D|---------------------------------|---------------------------------| 
A|---------------------------------|---------------------------------| 
F|---------------------------------|-----------------(DUM DUM)-------| 
C|---------------------------------|---------------------------------| 
G|---------------------------------|-----------------1~------1~------| 
C| 7p0-0-0-0-0-0-0-0-0-0-0-0-0-7p0h|-6p0-0-0-0-0-0-0-1~------1~------| 
       . . . . . . . . . . . .           . . . . . . .       . 

   1   &   2   &   3   &   4   &     1   &   2   &   3   &   4   & 
D|---------------------------------|---------------------------------| 
A|---------------------------------|---------------------------------| 
F|---------------------------------|---------------------------------| 
C|---------------------------------|---------------------------------| 
G|---------------------------------|-----------------6---5---3---5---| 
C| 7p0-0-0-0-0-0-0-0-0-0-0-0-0-7p0h|-6p0-0-0-0-0-0-0-6---5---3---5---| 
       . . . . . . . . . . . .           . . . . . . 

   1   &   2   &   3   &   4   &     1   &   2   &   3   &   4   & 
D|---------------------------------|---------------------------------| 
A|---------------------------------|---------------------------------| 
F|---------------------------------|---------------------------------| 
C|---------------------------------|---------------------------------| 
G|-6---6-6-6-6-6~----------6~------|-5---5-5-5-5-5~----------5~------| 
C|-6---6-6-6-6-6~----------6~------|-5---5-5-5-5-5~----------5~------| 
       . . . .                           . . . . 

   1   &   2   &   3   &   4   &     1   &   2   &   3   &   4   & 
D|---------------------------------|---------------------------------| 
A|---------------------------------|---------------------------------| 
F|---------------------------------|---------------------------------| 
C|---------------------------------|---------------------------------| 
G|-3---3-3-3-3-3~----------3~------|-3---3-3-3-3-3~----------3~------| 
C|-3---3-3-3-3-3~----------3~------|-3---3-3-3-3-3~----------3~------| 
       . . . .                           . . . . 

   1   &   2   &   3   &   4   &     1   &   2   &   3   &   4   & 
D|---------------------------------|---------------------------------| 
A|---------------------------------|---------------------------------| 
F|---------------------------------|---------------------------------| 
C|---------------------------------|---------------------------------| 
G|-5---5-5-5-5-5~----------5~------|-5---5-5-5-5-5~----------5~------| 
C|-5---5-5-5-5-5~----------5~------|-5---5-5-5-5-5~----------5~------| 
       . . . .                           . . . . 

   1   &   2   &   3   &   4   &     1   &   2   &   3   &   4   & 
D|---------------------------------|---------------------------------| 
A|---------------------------------|---------------------------------| 
F|---------------------------------|---------------------------------| 
C|---------------------------------|---------------------------------| 
G|-6---6-6-6-6-6~----------6~------|-6---6-6-6-6-6~----------6~------| 
C|-6---6-6-6-6-6~----------6~------|-6---6-6-6-6-6~----------6~------| 
       . . . .                           . . . . 

   1   &   2   &   3   &   4   &     1   &   2   &   3   &   4   & 
D|---------------------------------|---------------------------------| 
A|---------------------------------|---------------------------------| 
F|---------------------------------|---------------------------------| 
C|---------------------------------|---------------------------------| 
G|-8---8-8-8-8-8~----------8~------|-8---8---8---8---8---8---8---8---| 
C|-8---8-8-8-8-8~----------8~------|-8---8---8---8---8---8---8---8---| 
       . . . . 

   1   &   2   &   3   &   4   &     
D|---------------------------------| 
A|---------------------------------| 
F|---------------------------------| (There's overlap between this final 
C|-0~------------------------------|    open chord and the Pre-Chorus) 
G|-0~------------------------------| 
C|-0~------------------------------| 

Guitar 2 

   1     &     2     &     3     &     4     &       1     &     2     &     3     &     4     & 
D|-------------------------------------------------|-------------------------------------------------| 
A|-13-10-11-13-11-10-13-10-11-13-11-10-13-10-11-13-|-11-10-14-11-13-14-13-11-14-11-13-14-13-11-14-11-| 
F|-------------------------------------------------|-------------------------------------------------| 
C|-------------------------------------------------|-------------------------------------------------| 
G|-------------------------------------------------|-------------------------------------------------| 
C|-------------------------------------------------|-------------------------------------------------| 

   1     &     2     &     3     &     4     &       1     &     2     &     3     &     4     & 
D|-------------------------------------------------|-10-14-11-10-------------------------------------| 
A|-13-10-11-13-11-10-13-10-11-13-11-10-10-11-13-13-|-------------13-11-10----------------------------| 
F|-------------------------------------------------|----------------------12-11~---------------------| 
C|-------------------------------------------------|-------------------------------------------------| 
G|-------------------------------------------------|-------------------------------------------------| 
C|-------------------------------------------------|-------------------------------------------------| 

Guitar 3 Harmony 

   1     &     2     &     3     &     4     &       1     &     2     &     3     &     4     & 
D|-------------------------------------------------|-------------------------------------------------| 
A|-10-7--8--10-8--7--10-7--8--10-8--7--10-7--8--10-|-8--7--11-8--10-11-10-8--11-8--10-11-10-8--11-8--| 
F|-------------------------------------------------|-------------------------------------------------| 
C|-------------------------------------------------|-------------------------------------------------| 
G|-------------------------------------------------|-------------------------------------------------| 
C|-------------------------------------------------|-------------------------------------------------| 

   1     &     2     &     3     &     4     &       1     &     2     &     3     &     4     & 
D|-------------------------------------------------|-6--10-9--6--------------------------------------| 
A|-10-7--8--10-8--7--10-7--8--10-8--7--7--8--10-10-|-------------10-8--7-----------------------------| 
F|-------------------------------------------------|----------------------8--7~----------------------| 
C|-------------------------------------------------|-------------------------------------------------| 
G|-------------------------------------------------|-------------------------------------------------| 
C|-------------------------------------------------|-------------------------------------------------| 

Guitar 2 

   1     &     2     &     3     &     4     &         1     &     2     &     3     &     4     & 
D|---------------------------------------------------|-------------------------------------------------| 
A|-13^15~------------13p11h13~---------------11h13p11|-10-------11-------13----11-------10-------------| 
F|---------------------------------------------------|-------------------------------------------12----| 
C|---------------------------------------------------|-------------------------------------------------| 
G|---------------------------------------------------|-------------------------------------------------| 
C|---------------------------------------------------|-------------------------------------------------| 

   1     &     2     &     3     &     4     &       1     &     2     &     3     &     4     & 
D|-------------------------------------------------|-------------------------------------------------| 
A|----------7--------8-----7-----------------------|-------------------------------------------------| 
F|-8--------------------------------8--------7-----|-5-----------------------------------------------| 
C|-------------------------------------------------|----------8--------7-----5*~---------------------| 
G|-------------------------------------------------|-------------------------------------------------| 
C|-------------------------------------------------|-------------------------------------------------| 
                                             .       .        .        .     

Guitar 3 Harmony 

   1     &     2     &     3     &     4     &         1     &     2     &     3     &     4     & 
D|---------------------------------------------------|-------------------------------------------------| 
A|-10^12~------------10p8-h10~---------------8-h10p8-|-7--------8--------10----8--------7--------------| 
F|---------------------------------------------------|-------------------------------------------8-----| 
C|---------------------------------------------------|-------------------------------------------------| 
G|---------------------------------------------------|-------------------------------------------------| 
C|---------------------------------------------------|-------------------------------------------------| 

   1     &     2     &     3     &     4     &       1     &     2     &     3     &     4     & 
D|-------------------------------------------------|-------------------------------------------------| 
A|-------------------------------------------------|-------------------------------------------------| 
F|-5--------7--------8-----7--------5--------------|-------------------------------------------------| 
C|-------------------------------------------8-----|-7--------5--------4-----------------------------| 
G|-------------------------------------------------|-------------------------------------------------| 
C|-------------------------------------------------|-------------------------------------------------| 
                                             .       .        .        .     

Guitar 2 (No Guitar 3 Harmony) 

   1     &     2     &     3     &     4     &       1     &     2     &     3     &     4     & 
D|----------------------------13-15-16-15-13----13-|-15-16-15-13----13-15-16-15-13----13-15-16-15-13-| 
A|----------13-14-15-13-14-15----------------15----|-------------15----------------15----------------| 
F|-11-13-14----------------------------------------|-------------------------------------------------| 
C|-------------------------------------------------|-------------------------------------------------| 
G|-------------------------------------------------|-------------------------------------------------| 
C|-------------------------------------------------|-------------------------------------------------| 

   1     &     2     &     3     &     4     &       1     &     2     &     3     &     4     & 
D|----13-15-16-15-13----13-15-16-15-13----13-15-16-|-13-16^17~---------16-13-16~---------------------| 
A|-15----------------15----------------15----------|-------------------------------------------------| 
F|-------------------------------------------------|-------------------------------------------------| 
C|-------------------------------------------------|-------------------------------------------------| 
G|-------------------------------------------------|-------------------------------------------------| 
C|-------------------------------------------------|-------------------------------------------------| 

Guitar 2 

   1     &     2     &     3     &     4     &       1     &     2     &     3     &     4     &   
D|-------------------------------------------------|-------------------------------------------------| 
A|-13-10-11-13-11-10----------------10-11-13-11-10-|-14-11-13-14-13-11----------------11-13-14-13-11-| 
F|-------------------12-11-8--11-12----------------|-------------------14-12-11-12-14----------------| 
C|-------------------------------------------------|-------------------------------------------------| 
G|-------------------------------------------------|-------------------------------------------------| 
C|-------------------------------------------------|-------------------------------------------------| 

   1     &     2     &     3     &     4     &       1     &     2     &     3     &     4     &   
D|----------------------------10-11-14-11-10----10-|-------------------------------------------------| 
A|----------10-11-13-10-11-13----------------13----|-13-11-10----13-11-10----------------------------| 
F|-8--11-12----------------------------------------|----------12----------12-11~---------------------| 
C|-------------------------------------------------|-------------------------------------------------| 
G|-------------------------------------------------|-------------------------------------------------| 
C|-------------------------------------------------|-------------------------------------------------| 

Guitar 3 Harmony 

   1     &     2     &     3     &     4     &       1     &     2     &     3     &     4     &   
D|-------------------------------------------------|-------------------------------------------------| 
A|-10-7--8--10-8--7-----------------7--8--10-8--7--|-11-8--10-11-10-8-----------------8--10-11-10-8--| 
F|-------------------8--7--5--7--8-----------------|-------------------11-8--7--8--11----------------| 
C|-------------------------------------------------|-------------------------------------------------| 
G|-------------------------------------------------|-------------------------------------------------| 
C|-------------------------------------------------|-------------------------------------------------| 

   1     &     2     &     3     &     4     &       1     &     2     &     3     &     4     &   
D|----------------------------6--9--10-9--6-----6--|-------------------------------------------------| 
A|----------7--8--10-7--8--10----------------10----|-10-8--7-----10-8--7-----------------------------| 
F|-5--7--8-----------------------------------------|----------8-----------8--7~----------------------| 
C|-------------------------------------------------|-------------------------------------------------| 
G|-------------------------------------------------|-------------------------------------------------| 
C|-------------------------------------------------|-------------------------------------------------| 

Guitar 2 (No Guitar 3 Harmony) 

   1     &     2     &     3     &     4     &       1     &     2     &     3     &     4     &   
D|-13----------------13----------------13----------|-------13----------------13~~~~------13~~~~------| 
A|-16^18-------------16^18-------------16^18-------|-------16^18-------------16^18~------16^18~------| 
F|-------------------------------------------------|-------------------------------------------------| 
C|-------------------------------------------------|-------------------------------------------------| 
G|-------------------------------------------------|-------------------------------------------------| 
C|-------------------------------------------------|-------------------------------------------------| 

   1     &     2     &     3     &     4     &       1     &     2     &     3     &     4     &   
D|-15----------------15----------------15----------|-------15----------------15~~~~------15~~~~------| 
A|-18^20-------------18^20-------------18^20-------|-------18^20-------------18^20~------18^20~------| 
F|-------------------------------------------------|-------------------------------------------------| 
C|-------------------------------------------------|-------------------------------------------------| 
G|-------------------------------------------------|-------------------------------------------------| 
C|-------------------------------------------------|-------------------------------------------------| 

   1     &     2     &     3     &     4     &       1     &     2     &     3     &     4     &   
D|-16----------------16----------------16----------|-------16---db\\\\\\\\\\\\\\\\\\\\\\\\\\\\\\\\\\\| 
A|-19^21-------------19^21-------------19^21-------|-------19^21db\\\\\\\\\\\\\\\\\\\\\\\\\\\\\\\\\\\| 
F|-------------------------------------------------|-------------------------------------------------| 
C|-------------------------------------------------|-------------------------------------------------| 
G|-------------------------------------------------|-------------------------------------------------| 
C|-------------------------------------------------|-------------------------------------------------| 

Guitar 2 

   1     &     2     &     3     &     4     &       1     &     2     &     3     &     4     &   
D|----------------------------11-14-15-14-11----11-|----------------11-14-15-14-11----11-14-15-14-11-| 
A|----------11-13-15-11-13-15----------------15----|-15-13-11-13-15----------------15----------------| 
F|-11-12-14----------------------------------------|-------------------------------------------------| 
C|-------------------------------------------------|-------------------------------------------------| 
G|-------------------------------------------------|-------------------------------------------------| 
C|-------------------------------------------------|-------------------------------------------------| 

   1   &   2   &   3   &   4   &     
D|---------------------------------| 
A|-15~-----------------------------| 
F|---------------------------------| (More overlap) 
C|---------------------------------| 
G|---------------------------------| 
C|---------------------------------| 

Guitar 3 Harmony 

   1     &     2     &     3     &     4     &       1     &     2     &     3     &     4     &   
D|----------------------------8--10-11-10-8-----8--|----------------8--10-11-10-8-----8--10-11-10-8--| 
A|----------8--10-11-8--10-11----------------11----|-11-10-8--10-11----------------11----------------| 
F|-7--8--11----------------------------------------|-------------------------------------------------| 
C|-------------------------------------------------|-------------------------------------------------| 
G|-------------------------------------------------|-------------------------------------------------| 
C|-------------------------------------------------|-------------------------------------------------| 

   1   &   2   &   3   &   4   &     
D|-10~-----------------------------| 
A|---------------------------------| 
F|---------------------------------| (More overlap) 
C|---------------------------------| 
G|---------------------------------| 
C|---------------------------------| 



Pre Chorus (3:34 - 3:45) 

Chorus (3:45 - 4:08) 
Note: the final bars of the Chorus change and are as follows... 

Guitar 1 

   1   &   2   &   3   &   4   &     1   &   2   &   3   &   4   & 
D|---------------------------------|---------------------------------| 
A|---------------------------------|---------------------------------| 
F|---------------------------------|---------------------------------| 
C|---------------------------------|---------------------------------| 
G|-------------6-------3---5~------|---------------------------------| 
C|-0---0-0-0-----------------------|-5~------6~------3~------5~------| 
   .   . . . 
Our army of...                       An army of... 

   1    &   2    &   3    &   4    &     
D|-------------------------------------| 
A|-------------------------------------| 
F|-------------------------------------| 
C|-------------------------------------| 
G|-------------------------------------| 
C|-5--5--5--6--6--6--3--3--3--1--1--1--| 
   .  .  .  .  .  .  .  .  .  .  .  . 
ARMY OF... 


Guitar 2 

   1   &   2   &   3   &   4   &     1   &   2   &   3   &   4   & 
D|---------------------------------|---------------------------------| 
A|---------------------------------|---------------------------------| 
F|---------------------------------|---------------------------------| 
C|---------------------------------|---------------------------------| 
G|-------------6-------3---5~------|---------------------------------| 
C|-0---0-0-0-----------------------|-7~------8~------10~-----12~-----| 
   .   . . . 
Our army of...                       An army of... 

   1    &   2    &   3    &   4    &     
D|-------------------------------------| 
A|-------------------------------------| 
F|-------------------------------------| 
C|-------------------------------------| 
G|-------------------------------------| 
C|-5--5--5--6--6--6--3--3--3--1--1--1--| 
   .  .  .  .  .  .  .  .  .  .  .  . 
ARMY OF... 

Outro (4:08 - 4:18) 

Guitar 1 

   1   &   2   &   3   &   4   &     1   &   2   &   3   &   4   & 
D|---------------------------------|---------------------------------| 
A|---------------------------------|---------------------------------| 
F|---------------------------------|---------------------------------| 
C|-0~------------------------------|(0)------------------------------| 
G|-0~------------------------------|(0)------------------------------| 
C|-0~------------------------------|(0)------------------------------| 

NOISE! 

   1   &   2   &   3   &   4   &     1   &   2   &   3   &   4   & 
D|---------------------------------|---------------------------------| 
A|---------------------------------|---------------------------------| 
F|---------------------------------|---------------------------------| 
C|(0)------------------------------|(0)------------------------------| 
G|(0)------------------------------|(0)------------------------------| 
C|(0)------------------------------|(0)--------------3~------5~------| 

Guitar 2 

   1   &   2   &   3   &   4   &     1   &   2   &   3   &   4   & 
D|---------------------------------|---------------------------------| 
A|---------------------------------|---------------------------------| 
F|---------------------------------|---------------------------------| 
C|---------------------------------|---------------------------------| 
G|---------------------------------|---------------------------------| 
C|-7p0-0-0-0-0-0-0-0-0-0-0-0-0-7p0h|-6p0-0-0-0-0-0-0-0-0-0-0-0-0-3p0h| 
       . . . . . . . . . . . .           . . . . . . . . . . . .   
NOISE! 
       
   1   &   2   &   3   &   4   &     1   &   2   &   3   &   4   & 
D|---------------------------------|---------------------------------| 
A|---------------------------------|---------------------------------| 
F|---------------------------------|---------------------------------| 
C|---------------------------------|---------------------------------| 
G|---------------------------------|---------------------------------| 
C|-2p0-0-0-0-0-0-0-0-0-0-0-0-0-7p0h|-6p0-0-0-0-0-0-0-8~------10~-----| 
       . . . . . . . . . . . .           . . . . . .    




************************************ 

|(0)  tied note 
| .   palm mute  
| /   slide up  
| \   slide down  
| h   hammer-on  
| p   pull-off  
| ~   let ring/vibrato  
| tr  tremolo  
| t   tap  
| +   harp harmonic 
| *   pinch harmonic  
| x   Mute note  
| ^   Bend 
| db  Dive Bomb  
| pb  Pre-bend  
| br  Bend release  
| pbr Pre-bend release  
| brb Bend release bend  

************************************ 
		  

See also:

tabs Bullet for my Valentine - Tears dont fall tabs Bullet for my Valentine - Army Of Noise tabs Bullet for my Valentine - Room 409 tabs Bullet for my Valentine - Dirty Little Secret tabs Bullet for my Valentine - Alone tabs Bullet for my Valentine - Tears Don't Fall (Acoustic)
e-chords

Other versions:

tabs Bullet for my Valentine - Army Of Noise
auto scroll beats size up size down change color hide chords drawings
tab show chords e-chords YouTube Clip e-chords hide all tabs e-chords go to top tab

share