Buckethead

Welcome To Buckethead Land

Buckethead

tabs

by  VICTBORGES

save to print version add songbook text version e-mail correct tuner
chordsukulelecavacokeyboardtabbassdrumsharmonicaflute Guitar Pro
close

there isn't a video lesson for this song

chords

Welcome To Buckethead Land

	  		 
E|-------------------------------------------------------------------------------|| 
B|-------------------------------------------------------------------------------|| 
G|-------------------------------------------------------------------------------||4X 
D|------------------------5--5--5--5--4--4--4--4--0--0--0--0---------------------|| 
A|------------2--2--2--2-----------------------------------------4--5------------|| 
E|------------------------------------------------------------2--------3~~~------|| 
 

Chorus: 

 
E|-------------------------------------------------------------------------------| 
B|-------------------------------------------------------------------------------| 
G|-------------------------------------------------------------------------------| 
D|---------------------------------------------------7--------5------------------| 
A|---------------4-----5-----4~~~--5--5--4--5------------------------------------| 
E|---------2--2-----2-----2--------3--3--------3--3-----3--3---------------------| 
 

 
E|-------------------------------------------------------------------------------| 
B|---------------------------------------------4--2--0---------------------------| 
G|------------------------------------------------------4--2--0------------------| 
D|---------------------------------------------------------------4--2--0---------| 
A|------------------4-----5-----4~~~--5--5---------------------------------------| 
E|------------2--2-----2-----2--------3--3---------------------------------------| 
 

 
E|---------------------------------------------------------| 
B|---------------------------------------------------------| 
G|---------------------------------------------------------| 
D|--------------------------------------------7--------5---| 
A|--------4-----5-----4~~~--5--5--4--5---------------------| 
E|--2--2-----2-----2--------3--3--------3--3-----3--3------| 
 

 
E|------------------------------------------------| 
B|------------------------------------------------| 
G|------------------------------------------------| 
D|------------------------------------------------| 
A|------------------------4-----5-----4~~~--5--5--| 
E|------------------2--2-----2-----2--------3--3--| 
 

 
E|----------------------------------|| 
B|----------------------------------|| 
G|---------------------------------*||4X 
D|---------------------------------*|| 
A|------4-----4--5--5-----4---------|| 
E|------2--0--2--3--3--0--2--0--2---|| 
 

Bridge: 

 
E|--------------------------------------------------------15--14--12---|| 
B|--12--12--12--12\14--14--14--14---14\15--15--15--15--15\-------------|| 
G|--------------------------------------------------------------------*||2X 
D|--------------------------------------------------------------------*|| 
A|---------------------------------------------------------------------|| 
E|---------------------------------------------------------------------|| 
 

Solo: 

 
E|--------------------------------------------------------------------| 
B|----------19--------------19----------------------------------------| 
G|----------19^--16--0--16--19^--16--0--16--0-------------------------| 
D|---------------------------------------------14~~~------------------| 
A|--------------------------------------------------------------------| 
E|--------------------------------------------------------------------| 
 

 
E|----------------------------------------------19-----------17---------|| 
B|--------------------------19--------------19------19--17--------------|| 
G|--------------------------19^--16--0--16----------------------19~~~--*||2X 
D|---------------------------------------------------------------------*|| 
A|----------------------------------------------------------------------|| 
E|----------------------------------------------------------------------|| 
 

 
E|--16--16--16--16--16--16---|| 
B|---------------------------|| 
G|--------------------------*||4X 
D|--------------------------*|| 
A|---------------------------|| 
E|---------------------------|| 
 

 
E|-16h18--16h19--16h18--16h19--16h18--16h19--16h18--16h19---|| 
B|----------------------------------------------------------|| 
G|---------------------------------------------------------*||2X 
D|---------------------------------------------------------*|| 
A|----------------------------------------------------------|| 
E|----------------------------------------------------------|| 
 

 
E|---------------------19h21--19h21--19h21--19h21---||--21--19----------| 
B|--------------------------------------------------||----------19--21--| 
G|-------------------------------------------------*||------------------|4X 
D|-------------------------------------------------*||------------------| 
A|--------------------------------------------------||------------------| 
E|--------------------------------------------------||------------------| 
 

 
E|---16h18p16------16--19--18h19p18p16----------|| 
B|-------------19-----------------------19p16---|| 
 
 G*--------------------------------------||8X 
 
 D*--------------------------------------|| 
A|----------------------------------------------|| 
E|----------------------------------------------|| 
 

 
E|---21p19p16------16--19--21p19p16------16--19---|| 
B|-------------19--------------------19-----------|| 
 
 G*----------------------------------------||8X 
 
 D*----------------------------------------|| 
A|------------------------------------------------|| 
E|------------------------------------------------|| 
 

 
E|---21^--21p19--------| 
B|---------------21~~~\| 
G|---------------------| 
D|---------------------| 
A|---------------------| 
E|---------------------| 
 

verse 1: 

 
E|----------------------------------------------------------------------|| 
B|----------------------------------------------------------------------||4X 
G|----------------------------------------------------------------------|| 
D|-------------------5p0-5p0-4p0-4p0------------------------------------|| 
A|--------5p2h5p2-----------------------4p0-4p0--0--4--5----------------|| 
E|-------------------------------------------------------------3~~~-----|| 
 

Riff A : 

 
E|-|-----------------------------------|-------------------|| 
B|-|-----------------------------------|-------------------|| 
G|-|*----------------------------------|------------------*||4X 
D|-|*----------5p0-5p0-4p0-4p0---------|------------------*|| 
A|-|---5p2-5p2-----------------4p0-4p0-|--0--4--5--5-------|| 
E|-|-----------------------------------|-----------3-------|| 
 

Riff B : 

 
E|-|---------------------------|----------------------------| 
B|-|---------------------------|----------------------------| 
G|-|---------------------------|----------------------------| 
D|-|---------------------------|------------------7------5--| 
A|-|---------4-----5-----4-----|--------4--5----------------| 
E|-|---2--2-----2-----2--------|--3--3--------3-3----3-3----| 
 

 
E|-|---------------------------|----------------------------| 
B|-|---------------------------|----------------------------| 
G|-|---------------------------|------------4p2p0-----------| 
D|-|---------------------------|-----------------4p2p0------| 
A|-|---------4-----5-----4-----|--5--5----------------4p2p0-| 
E|-|---2--2-----2-----2--------|--3--3----------------------| 
 

 
E|-|---------------------------|----------------------------| 
B|-|---------------------------|----------------------------| 
G|-|---------------------------|----------------------------| 
D|-|---------------------------|------------------7------5--| 
A|-|---------4-----5-----4-----|--------4--5----------------| 
E|-|---2--2-----2-----2--------|--3--3--------3-3----3-3----| 
 

 
E|-|---------------------------|---------------------------|| 
B|-|---------------------------|---------------------------|| 
G|-|---------------------------|---------BREAK-------------|| 
D|-|---------------------------|---------------------------|| 
A|-|---------4-----5-----4-----|--5------------------------|| 
E|-|---2--2-----2-----2--------|--3------------------------|| 
 

Riff C: 

 
E|-|------------------|--------------------|| 
B|-|------------------|--------------------|| 
G|-|------------------|-------------------*||4X 
D|-|------------------|-------------------*|| 
A|-|---4-------4---5--|--5------4-----4----|| 
E|-|---2----0--2---3--|--3---0--2--0--2----|| 
 

Riff D: 

 
E|-|----------------------|----------------------|---------------15--|---15---15\14--14--12---|| 
B|-|---12---12------12/14-|---14---14------14/15-|---15---15---------|------------------------|| 
G|-|*---------------------|----------------------|---------------12--|---12---12\11--11--9---*|| 
D|-|*--9----9-------9-/11-|---11---11------11/12-|---12---12---------|-----------------------*|| 
A|-|----------------------|----------------------|-------------------|------------------------|| 
E|-|----------------------|----------------------|-------------------|------------------------|| 
 
  |                      |                      |                   |                        || 
 
   |   B                  |   A                  |   G               |   G               A    || 
E|-|----------------------|----------------------|-------------------|------------------------|| 
B|-|----------------------|----------------------|-------------------|------------------------|| 
G|-|*---------------------|----------------------|-------------------|-----------------------*|| 
D|-|*--9------------------|---7------------------|---5---------------|---5---------------7---*|| 
A|-|---9------------------|---7------------------|---5---------------|---5---------------7----|| 
E|-|---7------------------|---5------------------|---3---------------|---3---------------5----|| 
 

      G#5       F#5        E5      F#5 (4x)     G#5 
E|-|---------|---------|---------|---------||--------- 
B|-|---------|---------|---------|---------||--------- 
G|-|*--------|---------|---------|--------||---------  
D-|*--6-----|---4-----|---2-----|---4----|---6 
A|-|---6-----|---4-----|---2-----|---4-----||---6----- 
E|-|---4-----|---2-----|---0-----|---2-----||---4----- 

 
E|-|----------------------|----------------------|---------------15--|---15---15\14-14-12|| 
B|-|---12---12------12/14-|---14---14------14/15-|---15---15-----15--|---15---15\12-12-12|| 
G|-|*--11---11------11/11-|---11---11------11/12-|---12---12-----12--|---12---12\11-11-9|| 
D|-|*--9----9-------9-/11-|---11---11------11/12-|---12---12---------|--------------|| 
A|-|----------------------|----------------------|-------------------|--------------|| 
E|-|----------------------|----------------------|-------------------|--------------|| 
 

E|-|----------------------|----------------------|-------------------|--------------|| 
B|-|----------------------|----------------------|-------------------|--------------|| 
G|-|*---------------------|----------------------|-------------------|--------------|| 
D|-|*--9------------------|---7------------------|---5---------------|---5---------7|| 
A|-|---9------------------|---7------------------|---5---------------|---5---------7|| 
E|-|---7------------------|---5------------------|---3---------------|---3---------5|| 
		  

Full key step upFull key step up
Half key step upHalf key step up
Half key step downHalf key step down
Full key step downFull key step down
hide glossary

See also:

tabs Skrillex - Make It Burn Dem tabs Kaskade - Turn It Down tabs Shiny Toy Guns - Ghost Town tabs Fedde Le Grand - Put Your Hands Up 4 Detroit tabs Buckethead - Nightrain (solo) tabs Buckethead - Shaded Ray
e-chords

Other versions:

tabs Buckethead - Welcome To Buckethead Land
auto scroll beats size up size down change color hide chords drawings
tab show chords e-chords YouTube Clip e-chords hide all tabs e-chords go to top tab

share