Buckethead

Jettison Part 4

Buckethead

tabs

by  AMAN_CLAUDINO

save to print version add songbook text version e-mail correct tuner
chordsukulelecavacokeyboardtabbassdrumsharmonicaflute Guitar Pro
close

there isn't a video lesson for this song

chords

Jettison Part 4

	  		
Tuning: D A D G B E 

Intro 

e|-------------------------------------------------------| 
B|-------------------------------------------------------| 
G|-------------------------------------------------------| 
D|-------------------------------------------------------| 
A|-------------------------------------------------------| 
D|--8----------------6--8--------------6--8--------------| 


 Main Riff 
e|-------------------------------------------------------| 
B|-------------------------------------------------------| 
G|-------------------------------------------------------| 
D|-------------------------------------------------------| Clean, low tone 
A|----------------------------------------8---6----------| with flanger 
D|--6h8---11---10---6-6---8--------6h8-----------11-10---| 

e|-------------------------------------------------------------| 
B|-------------------------------------------------------------| 
G|-------------------------------------------------------------| 
D|-------------------------------------------------------------| 
A|--------9---8------------8---6-------------------------------| 
D|--6h8--------------6h8--------------6h8---11---10---6-6---8--| 

e|-------------------------------------------------------| 
B|-------------------------------------------------------| 
G|-------------------------------------------------------| 
D|-------------------------------------------------------| 
A|----------------------------------------8---6----------| 
D|--6h8---11---10---6-6---8--------6h8-----------11-10---| 

e|-------------------------------------------------------------| 
B|-------------------------------------------------------------| 
G|-------------------------------------------------------------| 
D|-------------------------------------------------------------| 
A|--------9---8------------8---6------------6---4--------------| 
D|--6h8--------------6h8--------------6h8-----------10-6---8---| 


 Main Riff  
                   PM         PM--------|                       PM------------| 
e|------------------------------------------------------------------------------| 
B|------------------------------------------------------------------------------| 
G|------------------------------------------------------------------------------| 
D|-----------------------------------------------10---8-------------------------| Distortion 
A|--6-8---11---10--(6)-6---8---------------6-8---8----6---11-10-----------------| with flanger 
D|--6-8---11---10--(6)-6---8---8-8-8-8-8---6-8------------11-10--8-8-8-8-8-8-8--| 
                     
                   PM-|                  PM-|                              PM--------| 
e|-------------------------------------------------------------------------------------| 
B|-------------------------------------------------------------------------------------| 
G|-------------------------------------------------------------------------------------| 
D|--------11---10----------------10---8------------------------------------------------| 
A|--6-8---9----8-----------6-8---8----6----------6-8---11---10--(6)-6---8--------------| 
D|--6-8------------8-8-----6-8-----------8-8-----6-8---11---10--(6)-6---8---8-8-8-8-8--| 

                                  Play 'MAIN RIFF' twice 
   


 Bridge 
                      PM---------|                PM----|                 PM------| 
e|------------------------------------------------------------------------------------| 
B|------------------------------------------------------------------------------------| 
G|---------------------------------------------10----------11\10---8---10-------------| 
D|------4-----------4----------------10---11-6-8-----------11\10---8---10-------------| 
A|------4-----------4----------------10---11-6-8-----------9-\8----6---8--------------| 
D|------4-----------4--4-4-4-4-4-4---10---11-6-8---8-8-8-------------------8-8-8-8----| 

                      PM---------|                PM----|                 PM----------| 
e|--------------------------------------------------------------------------------------| 
B|--------------------------------------------------------------------------------------| 
G|---------------------------------------------10----------11\10---8---10---------------| 
D|-8\6--4-----------4----------------10---11-6-8-----------11\10---8---10---------------| 
A|-8\6--4-----------4----------------10---11-6-8-----------9-\8----6---8----------------| 
D|-8\6--4-----------4--4-4-4-4-4-4---10---11-6-8---8-8-8-------------------8-8-8-8-8-8--| 



 Solo 

e|--------------|--------------|--------------|--------------| 
B|--------------|--------------|--------------|--------------| 
G|--------------|--1-----------|--------------|--------------| 
D|--3-----------|-----3--------|--------------|--------------| 
A|-----4--3--1--|--------4--3--|-----4--3--4--|-----3--4--3--| 
D|--------------|--------------|--4-----------|--6-----------| 

e|--------------|--------------|--------------|--------------| 
B|--------------|--------------|--------------|--------------| 
G|--------------|--1-----------|--------------|--------------| 
D|--3-----------|-----3--------|--------------|--------------| 
A|-----4--3--1--|--------4--3--|-----4--3--4--|--------------| 
D|--------------|--------------|--4-----------|--6~~~~~~~~---| 
              
                       play 'SOLO' twice 
  

 Break 

   PM--------------------------------------------------------------------------------| 
e|-------------------------------------------------------------------------------------| 
B|-------------------------------------------------------------------------------------| 
G|-------------------------------------------------------------------------------------| all 
D|-------------------------------------------------------------------------------------| down/up 
A|-------------------------------------------------------------------------------------| strokes 
D|--6-6--8-8-8-8--11-11-11-11--10-10-10-10-10-10-10--6-6-6-6--8-8-8-8-8-8-8-8-8-8-8-8--| 

   PM-------------------------------------------------------------------------------| 
e|------------------------------------------------------------------------------------| 
B|------------------------------------------------------------------------------------| 
G|------------------------------------------------------------------------------------| 
D|------------------------------------------------------------------------------------| 
A|----------------8-8-8-8--6-6-6-6----------------------------------------------------| 
D|--6-6--8-8-8-8--------------------11-11--10-10-10-10-10-10-10-10-10-10-10-10-10-10--| 

   PM----------------------------------------------------------------------| 
e|---------------------------------------------------------------------------| 
B|---------------------------------------------------------------------------| 
G|---------------------------------------------------------------------------| 
D|---------------------------------------------------------------------------| 
A|----------------9-9-9-9--8-8-8-8-8-8-----------------8-8-8-8--6-6-6-6-6-6--| 
D|--6-6--8-8-8-8-------------------------6-6--8-8-8-8------------------------| 

   PM--------------------------------------------------------------------------------| 
e|-------------------------------------------------------------------------------------| 
B|-------------------------------------------------------------------------------------| 
G|-------------------------------------------------------------------------------------| 
D|-------------------------------------------------------------------------------------| 
A|-------------------------------------------------------------------------------------| 
D|--6-6--8-8-8-8--11-11-11-11--10-10-10-10-10-10-10--6-6-6-6--8-8-8-8-8-8-8-8-8-8-8-8--| 

                                  play 'BREAK' twice 


 Outro 

e|---------------------------------------------------------------------------| 
B|---------------------------------------------------------------------------| 
G|---------------------------------------------------------------------------| 
D|--8\-------------8\---------------------8\-------------8\------------4-----| x 2 
A|--8\---8-8-8-8---8\---8-8-8-8-8-8-8-8---8\---8-8-8-8---8\---8-8-8-8--4-----| 
D|--8\---8-8-8-8---8\---8-8-8-8-8-8-8-8---8\---8-8-8-8---8\---8-8-8-8--4-----| 






************************************ 


| h   Hammer-on 
| p   Pull-off 
| /   Slide up 
| \   Slide down 
| ~   Vibrato 
| s   Slap 
| P   Pop 
| PM  Palm mute 
| TR  Trill 
| N   Tremolo 

************************************ 
		  

See also:

tabs Shiny Toy Guns - When Did This Storm Begin tabs Celldweller - The Wings Of Icarus tabs Peaches - Sucker tabs Buckethead - Four Rivers tabs Shiny Toy Guns - Ricoche tabs To Mars and Back Again - Follow the yellow brick road
e-chords

Other versions:

tabs Buckethead - Jettison Part 4
auto scroll beats size up size down change color hide chords drawings
tab show chords e-chords YouTube Clip e-chords hide all tabs e-chords go to top tab

share