Brutal Attack

Rac

Brutal Attack

tabs

by  ABELAMIN

save to print version add songbook text version e-mail correct tuner
chordsukulelecavacokeyboardtabbassdrumsharmonicaflute Guitar Pro
close

there isn't a video lesson for this song

chords

Rac

	  		Brutal Attack : R.A.C. 

Intro/Verse: 

E|-----------------------------------------------------------| 
B|-----------------------------------------------------------| 
G|---------------------5--4----------------------------------| 
D|--5--5--5--5--5-5-5--3--2----------------------------------| 
A|--3--3--3--3--3-3-3--------5--5-5-5-5-5-5-5-5-5-5-5-5-5-5--| 
E|---------------------------3--3-3-3-3-3-3-3-3-3-3-3-3-3-3--| 

Chorus: 

E|-----------------------------------------------------------------| 
B|-----------------------------------------------------------------| 
G|-----------------------------------------------------------------| 
D|---------------------------------5-5-5-5-5-5-5-5-2-2-2-2-2-2-2-2-| 
A|-3-3-3-3-3-3-3-3-5-5-5-5-5-5-5-5-3-3-3-3-3-3-3-3-0-0-0-0-0-0-0-0-| 
E|-1-1-1-1-1-1-1-1-3-3-3-3-3-3-3-3---------------------------------| X2 


E|-----------------------------------------------------------------| 
B|-----------------------------------------------------------------| 
G|-----------------------------------------------------------------| 
D|-----------------------------------------------------------------| 
A|-5-5-5-5-5-5-5-5-5-5-5-5-5-5-5-5-5-5-5-5-5-5-5-5-5-5-5-5-5-5-5-5-| 
E|-3-3-3-3-3-3-3-3-3-3-3-3-3-3-3-3-3-3-3-3-3-3-3-3-3-3-3-3-3-3-3-3-| 
		  

See also:

tabs Scalene - Milhares Como Eu tabs Deep Purple - Never A Word tabs Deep Purple - Smoke On The Water (Intro + solo 01) tabs Ira! - Flerte Fatal (intro e solo) tabs Deep Purple - Deep Purple - Smoke On The Water tabs Deep Purple - Burn
e-chords

Other versions:

tabs Brutal Attack - Rac tabs The Offspring - Race Against Myself tabs A Great Big Pile Of Leaves - Race Car Driving tabs 3 Doors Down - Race For The Sun tabs Chris Impelliteri - Race Into The Night tabs The Expanders - Race Is Run
auto scroll beats size up size down change color hide chords drawings
tab show chords e-chords YouTube Clip e-chords hide all tabs e-chords go to top tab

share