Bruce Dickinson

Tears Of The Dragon (ver. 3) Tab

Bruce Dickinson

Difficulty: BeginnerBeginner

by cyber+rockeiro

tuner correct add songbook print version text version save to e-mail
chordsukulelecavacokeyboardtabbassdrumsharmonicsflute Guitar Pro
close

there isn't a video lesson for this song

chords

Tears Of The Dragon (ver. 3)

  		  Am 
e------------------------------------------------------- 
B-----1-------0-----1----0------0h1--------------------- 
G-------0-------2-----2----2---------------------------- 
D---2-----2-------2-----2----2-------------------------- 
A-0----------------------------------------------------- 
E------------------------------------------------------- 
    C             Cadd9 
e------------------------------------------------------- 
B------1------0-1--3-----1------0h1--------------------- 
G--------0-----------0-----0---------------------------- 
D---2------2-----------2-----2-------------------------- 
A-3----------------------------------------------------- 
E------------------------------------------------------- 
 
{Verso}(00:15) 
continua nas notas aicima 
(00:41) 
Fica tocando essas notas até o Refrão: 
Em,G,D,Am 
 
tabchorus
1:05) Em C G D I Throw Myself Into the Sea Em C Release the wave G D Let it wash over me Em C To face The fear G D I once believed Em C The tears of the dragon G D For you and for me
tab
(1:35) Am e------------------------------------------------------- B-----1-------0-----1----0------0h1--------------------- G-------0-------2-----2----2---------------------------- D---2-----2-------2-----2----2-------------------------- A-0----------------------------------------------------- E------------------------------------------------------- C Caadd9 e------------------------------------------------------- B------1------0-1--3-----1------0h1--------------------- G--------0-----------0-----0---------------------------- D---2------2-----------2-----2-------------------------- A-3----------------------------------------------------- E------------------------------------------------------- (2:02) ficar tocando eassa notas repetidamente até o Refrão: Em,G,D,Am {Refrão}(2:25) Em C G D I Throw Myself Into the Sea Em C Release the wave G D Let it wash over me Em C To face The fear G D I once believed Em C The tears of the dragon G D For you and for me {solo}(2:55) a Base é (A-A-G5-F5)(A-A-D-C5)( a Batida vai acelerando) o solo logo será colocado aqui Am Em Slowly I awake G D Am Slowly I rise Em The walls I built are crumblig G The water is moving D I'm slipping away
tabchorus
2:25) Em C G D I Throw Myself Into the Sea Em C Release the wave G D Let it wash over me Em C To face The fear G D I once believed Em C The tears of the dragon G D For you and for me x2
tab

Full key step upFull key step up
Half key step upHalf key step up
Half key step downHalf key step down
Full key step downFull key step down
auto scroll beats size up size down change color hide chords drawings
tab show chords e-chords YouTube Clip e-chords hide all tabs e-chords go to top tab

share with facebook

Search Paypal