Bruce Dickinson

home > Bruce Dickinson

Tears of the Dragon Tab

Bruce Dickinson

Difficulty: ExpertExpert

tuner correct add songbook print version text version save to e-mail
chordsukulelecavacokeyboardtabbassdrumsharmonicsflute Guitar Pro
chords

Tears of the Dragon

Year: 1994 - Album: The Best of Bruce Dickinson

(Bruce Dickinson)

  		Intro
    Am
e|------------------------------------|
B|------1-----0-----1-----0-----0h1---|
G|--------2-----2-----2-----2---------|
D|----2-----2-----2-----2-----2-------|
A|--0---------------------------------|
E|------------------------------------|

    C               Cadd9
e|--------------------------------------|
B|------1-----0-1---3-----1------0h1----|
G|--------0-----------0------0----------|
D|----2-----2-----------2------2--------|
A|--3-------------3---------------------|
E|--------------------------------------|

Verse
Am
  For too long now 
C            Cadd9         Am
  There were secrets in my mind

  For too long now
C            Cadd9                Am
  There were things I should have said

  In the darkness 
C       Cadd9             Am
  I was stumbling for the door

  To find a reason
C             Cadd9                Am
  To find the time, the place, the hour

 
                  Em
  Waiting for the winter sun
          G             D
  And the cold light of day
Am                    Em
  The misty ghosts of childhood fears
      G
  The pressure is building
        D
  And I can't stay away


Chorus
    Em      C      G      D
  I throw myself into the sea
    Em        C
  Release the wave 
         G         D
  Let it wash over me
     Em       C
  To face the fear 
    G      D
  I once believed 
      Em            C
  The tears for the dragon 
      G           D
  For you and for me


Am
  Where I was 
C       Cadd9               Am
  I had wings that couldn't fly

  Where I was
C       Cadd9            Am
  I had tears I couldn't cry

  My emotions 
C        Cadd9     Am
  Frozen in an icy lake

  I couldn't feel them
C           Cadd9        Am
  Until the ice began to break


                  Em
  I have no power over this
      G         D
  You know I'm afraid
      Am                Em
  The walls I built are crumblig
      G
  The water is moving 
      D
  I'm slipping away


Chorus

Solo
Solo de Tears of the Dragon - Bruce Dickinson

A base é basicamente (A5 - A5 - G5 - F5 )( A5 - A5 - D5 - C5), a não ser quando indicado de outra 
forma. O que vai profgressivamente mudando(acelerando) é a batida.

(2:55)
  P.M.------|
E|--------------------------------------------------------------------------------------------|
B|---------------------------------------------------------------8--10--8--6--8--6--5--6------|
G|-----------5~~~-------4----2~~-2h4--4--4---------------5/7--9------------------------------|
D|--2/7---------------2-----2----------------2-2~~------7-------------------------------------|
A|--------7-----------------------------------------------------------------------------------|
E|--------------------------------------------------------------------------------------------|

(Mudança de timbre)
(3:08)                      
E|--------------------------------------------------------------------------------------------|
B|------------------------------------------------------5--6--6/8--6--5--6--5-----------------|
G|--7b(9)rp5--5-------5b(7)----7b(9)rp5--5-------5b(7)-------------------------7--7b(9)-------|
D|---------------7-7------------------------7-7-----------------------------------------------|
A|--------------------------------------------------------------------------------------------|
E|--------------------------------------------------------------------------------------------|

		       H.A.				(3:18)
E|--------------------------------------------------------------------------------------------|
B|---------------------------------------------------------8b(10)---8--5--8--------5-8--5-----|
G|--7b(9)rp5--5-------5b(7)-----7b(9)rp5--5-------4b(5)----------------------7b(9)------------|
D|---------------7-7-------------------------7-7----------------------------------------------|
A|--------------------------------------------------------------------------------------------|
E|--------------------------------------------------------------------------------------------|

									(3:24)
									  P.M.
E|--------------------------------------------------------------------------------------------|
B|------------8-5---------8-5--------8--5---------5-------------------------------------------|
G|-----7b(9)--------7b(9)------7b(9)-------7b(9)-----7--5---------4b(5)-----------------------|
D|----------------------------------------------------------5-7-7-----------------------------|
A|-------------------------------------------------------------------------0--2---3--5--3-2---|
E|--------------------------------------------------------------------------------------------|

								    (3:32)
E|---------------------------------------------------------------------------5-----5----------|
B|-------------------------------------------------------8----------8b(10)------8-----5--5--8-|
G|------------------5h7p5--5--------5b(7)-----5--7--7b(9)--7b(9)------------------------------|
D|--------3--5--7-------------7--7---------7--------------------------------------------------|
A|--3--5--------------------------------------------------------------------------------------|
E|--------------------------------------------------------------------------------------------|

					(3:35)
E|--5--------8--------------------------------------------------------------------------------|
B|-----8--5------8--10--10--8--10~~~~-----10--12--12b(13)~~~~r--12--10--10h12~~-----10---12---|
G|--------------------------------------------------------------------------------------------|
D|--------------------------------------------------------------------------------------------|
A|--------------------------------------------------------------------------------------------|
E|--------------------------------------------------------------------------------------------|


				(3:42)
E|--------------------------------------15----------15---------15-----------------------------|
B|-12/13---12---13--15--13--15--15b(17)-----15b(17)----15b(17)-----15b(17)~~----20b(22)-------|
G|--------------------------------------------------------------------------------------------|
D|--------------------------------------------------------------------------------------------|
A|--------------------------------------------------------------------------------------------|
E|--------------------------------------------------------------------------------------------|

					      |-Palhetada Muito rápida---|  (3:49)

E|-17----------20----17-----20------17--20--------------17-----------------20b(22)-20b(22)----|
B|------20--17----------17--------17---------17-17-17------17-17---17-17----------------------|
G|--------------------------------------------------------------------------------------------|
D|--------------------------------------------------------------------------------------------|
A|--------------------------------------------------------------------------------------------|
E|--------------------------------------------------------------------------------------------|

							 (3:53)
E|--20b(22)--20b(22)--20b(22)r--19--20--19--17-19~~~~-----------5----------------------------|
B|------------------------------------------------------------------8--5-------5--8--5--------|
G|--------------------------------------------------------7b(9)----------7b(9)----------7b(9)r|
D|--------------------------------------------------------------------------------------------|
A|--------------------------------------------------------------------------------------------|
E|--------------------------------------------------------------------------------------------|

							     (3:59)
E|--------------------------------------------------------------------------------------------|
B|--------------------------------------------------------------10/12-13--12-13-15-13-15-17~~-|
G|--7p5------------5-7--7p5--7p5---------4b(1/4)--5b(1/4)----9--------------------------------|
D|-------7--7--7-7----------------7b(1/4)-----------------------------------------------------|
A|--------------------------------------------------------------------------------------------|
E|--------------------------------------------------------------------------------------------|

   (4:02)
E|------------------------12-------12-13-12~~------------12-------12-13----12-13-15-13~~------|
B|-----12-13-15--12-13-15----13-15--------------12-13-15----13-15-------15--------------------|
G|--14----------------------------------------------------------------------------------------|
D|--------------------------------------------------------------------------------------------|
A|--------------------------------------------------------------------------------------------|
E|--------------------------------------------------------------------------------------------|

										     (4:11)
E|-13--15-15/17--15--17-17/19---17-19--19b(20)-19b(20)-19b(20)-19b(20)-19b(20)~~~~--20b(22)~~-|
B|--------------------------------------------------------------------------------------------|
G|--------------------------------------------------------------------------------------------|
D|--------------------------------------------------------------------------------------------|
A|--------------------------------------------------------------------------------------------|
E|--------------------------------------------------------------------------------------------|

E|--22b(24)--22b(24)--22b(24)-22b(24)-22b(24)-22b(24)-22b(24)-22--20--22~~~~------------------|
B|--------------------------------------------------------------------------------------------|
G|--------------------------------------------------------------------------------------------|
D|--------------------------------------------------------------------------------------------|
A|--------------------------------------------------------------------------------------------|
E|--------------------------------------------------------------------------------------------|




=================================================================================================

Parte Calma - BASE :

     Am					      Dm	    Em	

E|--8---------8--------8--8--------8----------5-----5-------7--7------7-----------------------|
B|-----10--------10---------10--------10--------6------6---------8-------8--------------------|
G|--------9----------9----------9--------9-------7-------7--------9--------9-----------------|
D|--------------------------------------------------------------------------------------------|
A|--------------------------------------------------------------------------------------------|
E|--------------------------------------------------------------------------------------------|

=================================================================================================


    (4:21)
E|------------------------------------------------------------15---17--------15b(17)(s)-------|
B|-------10--12--12b(14)rb--13b(15)--13-10-10--12b(13)(s)---------------17~~------------------|
G|----9---------------------------------------------------------------------------------------|
D|--------------------------------------------------------------------------------------------|
A|--------------------------------------------------------------------------------------------|
E|--------------------------------------------------------------------------------------------|


       (4:30)
E|---------------------------------------------------------15---------------------------------|
B|--------10--12-12b(15)r-12--10-10-12b(13)(s)-----15b(17)-----15b(17)r---(15)b(17)(s)--------|
G|-----9--------------------------------------------------------------------------------------|
D|--------------------------------------------------------------------------------------------|
A|--------------------------------------------------------------------------------------------|
E|--------------------------------------------------------------------------------------------|

      (4:37)
E|--------------------------------------------------------------------------------------------|
B|---------------13--15b(17)(s)---13--15b(17)(s)--13-----------12b(13)(s)---------------------|
G|-------14-------------------------------------------14--14~---------------------------------|
D|---14------14-------------------------------------------------------------------------------|
A|--------------------------------------------------------------------------------------------|
E|--------------------------------------------------------------------------------------------|

	(4:42)
E|---------------------------------------------------------------------------------------------|
B|----8--5------5--8------8--5-----5-----------------------------------------------------------|
G|----------7---------7---------7-----7--5-----------------------------------------------------|
D|-------------------------------------------7--7--7~~~~--------------------------------------|
A|--------------------------------------------------------------------------------------------|
E|--------------------------------------------------------------------------------------------|

obs: (s) é stacatto, ou seja, abafe a nota logo que tocar

Am         Em
  Slowly I awake
  G        D    Am
  Slowly I rise
                        Em
  The walls I built are crumblig
      G
  The water is moving 
      D
  I'm slipping away

Chorus x2
	  

Full key step upFull key step up
Half key step upHalf key step up
Half key step downHalf key step down
Full key step downFull key step down
Search Paypal
auto scroll beats size up size down change color hide chords drawings
tab show chords e-chords YouTube Clip e-chords hide all tabs e-chords go to top tab