Bruce Dickinson

home > Bruce Dickinson

Tattoed Millionaire Tab

Bruce Dickinson

Difficulty: IntermediateIntermediate

by xxDiogo+Brunoxx

tuner correct add songbook print version text version save to e-mail
chordsukulelecavacokeyboardtabbassdrumsharmonicsflute Guitar Pro
chords

Tattoed Millionaire

  		                              Tattoed millionaire                                
 
 
                                                   Bruce Dickinson & Janick gers 
Janick guitar 1 
 
 
 
                                                     
E||-------------------------|----------------------| 
B||--10--10--10--9~---------|--5--5--5--4~---------| 
G||--9---9---9---9~---------|--4--4--4--4~---------| 
D||-------------------------|----------------------| 
A||-------------------------|----------------------| 
E||-------------------------|----------------------| 
 
 
                                                                              
-----------------------------|--------------------|-------------------------| 
--10--10--10--9----10----12--|--12~---------------|--10--10--10--9~---------| 
--9---9---9---9----9-----11--|--11~---------------|--9---9---9---9~---------| 
-----------------------------|--------------------|-------------------------| 
-----------------------------|--------------------|-------------------------| 
-----------------------------|--------------------|-------------------------| 
 
 
                                                                           
----------------------|-----------------------------|--------------------| 
--5--5--5--4~---------|--10--10--10--9----10----12--|--12~---------------| 
--4--4--4--4~---------|--9---9---9---9----9-----11--|--11~---------------| 
----------------------|-----------------------------|--------------------| 
----------------------|-----------------------------|--------------------| 
----------------------|-----------------------------|--------------------| 
 
 
                                                    
|--------------------------|----------------------| 
|---10--10--10--9~---------|--5--5--5--4~---------| 
|*--9---9---9---9~---------|--4--4--4--4~---------| 
|*-------------------------|----------------------| 
|--------------------------|----------------------| 
|--------------------------|----------------------| 
 
 
                                                   3x                       
-----------------------------|---------------------||---------------------| 
--10--10--10--9----10----12--|--12~----------------||---------------------| 
--9---9---9---9----9-----11--|--11~---------------*||--2------4--4--------| 
-----------------------------|--------------------*||--2------4--4--------| 
-----------------------------|---------------------||--0------2--2--------| 
-----------------------------|---------------------||---------------------| 
 
 
                                                                         
------------------------|---------------------|------------------------| 
------------------------|---------------------|------------------------| 
--------4--2--2----2----|--2------4--4--------|----6--6--4--4--6--6----| 
-----2-----2--2----2----|--2------4--4--------|----6--6--4--4--6--6----| 
-----------0--0----0----|--0------2--2--------|----4--4--2--2--4--4----| 
--4---------------------|---------------------|------------------------| 
 
 
                                                                     
---------------------|------------------------|--------------------| 
---------------------|------------------------|--------------------| 
--2------4--4--------|--------4--2--2----2----|--2------4----------| 
--2------4--4--------|-----2-----2--2----2----|--2------4----------| 
--0------2--2--------|-----------0--0----0----|--0------2----------| 
---------------------|--4---------------------|--------------------| 
 
 
                                                                               
------------------------|-------------------------|--------------------------| 
------------------------|-------------------------|--------------------------| 
----6--6--4--4--6--6----|-----------9-------------|--------------------------| 
----6--6--4--4--6--6----|--9--9--9--9----9--9--9--|--9--9--9--9--9--9--9--9--| 
----4--4--2--2--4--4----|--7--7--7--7----7--7--7--|--9--9--9--9--9--9--9--9--| 
------------------------|-----0-------------------|--7--7--7--7--7--7--7--7--| 
 
 
                                                                             
--------------------------|-----------------------|------------------------| 
--------------------------|-----------------------|------------------------| 
--------4--------4--4-----|-----------------------|----------9----9--9--9--| 
-----2-----2--------------|--2----2----2--2--2----|--9----9----------------| 
--------------------------|--0----0----0--0--0----|--7---------------------| 
--4-----------4--------4--|-----------------------|--0---------------------| 
 
 
                                                                               
--------------------------|--------------------------|-----------------------| 
--------------------------|--------------------------|-----------------------| 
--4--4--4--4--4--4--4--4--|--------4--------4--4-----|-----------------------| 
--4--4--4--4--4--4--4--4--|-----2-----2-----------2--|------2----2--2--2-----| 
--2--2--2--2--2--2--2--2--|-----------------------0--|------0----0--0--0-----| 
--------------------------|--4-----------4-----------|--------------------0--| 
 
 
                                                                              
------------------------|------------------------|--------------------------| 
------------------------|------------------------|--------------------------| 
----------9-------------|--4----4----4--4--4-----|--------4--------4--4-----| 
--9----9-------9--9--2--|--4----4----4--4--4-----|-----2-----2--------------| 
--7------------7--7--0--|--2----2----2--2--2-----|--------------------------| 
--0---------------------|---------------------0--|--4-----------4--------4--| 
 
 
                                                                             
------------------------|-------------------------|------------------------| 
------------------------|-------------------------|------------------------| 
------------------------|-----------9-------------|--4----4----4--4--4-----| 
--2----2----2--2--2-----|--9-----9-------9--9--2--|--4----4----4--4--4-----| 
--0----0----0--0--0-----|--7--7----------7--7--0--|--2----2----2--2--2-----| 
---------------------0--|--0----------------------|---------------------0--| 
 
 
                                                                            
--------------------------|-------------------||--------------------------| 
--------------------------|-------------------||---10--10--10--9~---------| 
--------4--------4--4-----|-------------------||*--9---9---9---9~---------| 
-----2-----2--------------|--2----------------||*-------------------------| 
--------------------------|--0----------------||--------------------------| 
--4-----------4--------4--|-------------------||--------------------------| 
 
 
                                                                          3x 
----------------------|-----------------------------|---------------------|| 
--5--5--5--4~---------|--10--10--10--9----10----12--|--12~----------------|| 
--4--4--4--4~---------|--9---9---9---9----9-----11--|--11~---------------*|| 
----------------------|-----------------------------|--------------------*|| 
----------------------|-----------------------------|---------------------|| 
----------------------|-----------------------------|---------------------|| 
 
 
                                                                                 
-------------------------|--------------------------|--------------------------| 
-------------------------|--------------------------|--------------------------| 
-----------9-------------|--------------------------|--------4--------4--4-----| 
--9--9--9--9----9--9--9--|--9--9--9--9--9--9--9--9--|-----2-----2--------------| 
--7--7--7--7----7--7--7--|--9--9--9--9--9--9--9--9--|--------------------------| 
-----0-------------------|--7--7--7--7--7--7--7--7--|--4-----------4--------4--| 
 
 
                                                                             
-----------------------|------------------------|--------------------------| 
-----------------------|------------------------|--------------------------| 
-----------------------|----------9----9--9--9--|--4--4--4--4--4--4--4--4--| 
--2----2----2--2--2----|--9----9----------------|--4--4--4--4--4--4--4--4--| 
--0----0----0--0--0----|--7---------------------|--2--2--2--2--2--2--2--2--| 
-----------------------|--0---------------------|--------------------------| 
 
 
                                                                             
--------------------------|-----------------------|------------------------| 
--------------------------|-----------------------|------------------------| 
--------4--------4--4-----|-----------------------|----------9-------------| 
-----2-----2-----------2--|------2----2--2--2-----|--9----9-------9--9--2--| 
-----------------------0--|------0----0--0--0-----|--7------------7--7--0--| 
--4-----------4-----------|--------------------0--|--0---------------------| 
 
 
                                                                              
------------------------|--------------------------|------------------------| 
------------------------|--------------------------|------------------------| 
--4----4----4--4--4-----|--------4--------4--4-----|------------------------| 
--4----4----4--4--4-----|-----2-----2--------------|--2----2----2--2--2-----| 
--2----2----2--2--2-----|--------------------------|--0----0----0--0--0-----| 
---------------------0--|--4-----------4--------4--|---------------------0--| 
 
 
                                                                               
-------------------------|------------------------|--------------------------| 
-------------------------|------------------------|--------------------------| 
-----------9-------------|--4----4----4--4--4-----|--------4--------4--4-----| 
--9-----9-------9--9--2--|--4----4----4--4--4-----|-----2-----2--------------| 
--7--7----------7--7--0--|--2----2----2--2--2-----|--------------------------| 
--0----------------------|---------------------0--|--4-----------4--------4--| 
 
 
                                                                          
-------------------|--------------------------|-------------------------| 
-------------------|--------------------------|-------------------------| 
-------------------|--------------------------|-------------------------| 
--2----------------|--7-----5--7-----5--7-----|--5--7-----5--7-------7--| 
--0----------------|--0--7-----0--7-----0--7--|-----0--7--------7----0--| 
-------------------|--------------------------|-----------------5-------| 
 
 
                                                                               
--------------------------|-------------------------|---------------------9~-| 
--------------------------|-------------------------|--9~-----10~---12~------| 
--------------------------|-------------------------|------------------------| 
--7-----5--7-----5--7-----|--5--7-----5--7-----5----|------------------------| 
--0--7-----0--7-----0--7--|-----0--7-----0--7-------|------------------------| 
--------------------------|-------------------------|------------------------| 
 
 
                                                                           
-------------------------|------------9~-------|-------------------------| 
------12--10~-9~-----10~-|----12~--------------|--12--10~-9~-----10~-----| 
-------------------------|---------------------|-------------------------| 
-------------------------|---------------------|-------------------------| 
-------------------------|---------------------|-------------------------| 
-------------------------|---------------------|-------------------------| 
 
 
                                                                       
----------9~-------------|---------------------|----9~-12~-----------| 
--12~------------12--10--|--9~-----12~---------|---------------------| 
-------------------------|---------------------|---------------------| 
-------------------------|---------------------|---------------------| 
-------------------------|---------------------|---------------------| 
-------------------------|---------------------|---------------------| 
 
 
                                                              
--12-9---------9-12-9---------9-12-9---------9-12-9---------| 
-------12-9-12--------12-9-12--------12-9-12--------12-9-12-| 
------------------------------------------------------------| 
------------------------------------------------------------| 
------------------------------------------------------------| 
------------------------------------------------------------| 
 
 
                                                          
--12~-----12~-12~---------|-----------------------------| 
-----------------------9--|--12~------------------------| 
--------------------9-----|--11~-----9--9~---9h11p9-----| 
--------------------------|-------------------------11~-| 
--------------------------|-----------------------------| 
--------------------------|-----------------------------| 
 
 
                                                                              
---------------------------|--4----9------9------9------9-------------------| 
---------------------------|----12---9-12---9-12---9-12---14p12----14p12----| 
--9h11p9-----11~-----------|------------------------------------13-------13-| 
---------11~---------------|------------------------------------------------| 
---------------------------|------------------------------------------------| 
---------------------------|------------------------------------------------| 
 
 
                                                                            
--------------------------------------------------------------------------| 
--14p12----14p12----14p13----14p12----14p12----14p12----14p12----14p12----| 
--------13-------13-------13-------13-------13-------13-------13-------13-| 
--------------------------------------------------------------------------| 
--------------------------------------------------------------------------| 
--------------------------------------------------------------------------| 
 
 
                                                                  
--14~-14~-12--11--12--11h12p11---------|------------------------| 
-------------------------------14--12~-|--14~-------12~---12~---| 
---------------------------------------|------------------------| 
---------------------------------------|------------------------| 
---------------------------------------|------------------------| 
---------------------------------------|------------------------| 
 
 
                                                              
----------------------14--|--16--14h16p14-------------------| 
--14~---17--16~-----------|---------------17--16~-14~-------| 
--------------------------|---------------------------------| 
--------------------------|---------------------------------| 
--------------------------|---------------------------------| 
--------------------------|---------------------------------| 
 
 
                                                                              
----------------------14--|--14~---12~-----------|----------------------14--| 
--14~---17--16~-----------|----------------------|--14~---17--16~-----------| 
--------------------------|----------------------|--------------------------| 
--------------------------|----------------------|--------------------------| 
--------------------------|----------------------|--------------------------| 
--------------------------|----------------------|--------------------------| 
 
 
                                                               
--16--14h16p14-------------------|----------------------9-11-| 
---------------17--16~-14~-------|--14~---17--16~------------| 
---------------------------------|---------------------------| 
---------------------------------|---------------------------| 
---------------------------------|---------------------------| 
---------------------------------|---------------------------| 
 
 
                                                                               
--12-9-11-12-14-11-12-14-16-12-14-16-17-14-16-17-|--19~----------------------| 
-------------------------------------------------|---------------------------| 
-------------------------------------------------|---------4--------4--4-----| 
-------------------------------------------------|------2-----2--------------| 
-------------------------------------------------|---------------------------| 
-------------------------------------------------|--0~-----------0--------0--| 
 
 
                                                                              
------------------------|--------------------------|------------------------| 
------------------------|--------------------------|------------------------| 
--4----4----------------|--------4--------4--4-----|------------------------| 
--4----4----9--9--9-----|-----2-----2--------------|--2----2----2--2--2-----| 
--2----2----9--9--9-----|--------------------------|--0----0----0--0--0-----| 
------------7--7--7--0--|--4-----------4--------4--|---------------------0--| 
 
 
                                                                             
-----------0-----------|------------------------|--------------------------| 
-----------------------|------------------------|--------------------------| 
-----------------------|--4----4----4--4--4-----|--------4--------4--4-----| 
--------4---------9----|--4----4----4--4--4-----|-----2-----2-----------2--| 
-----2------------7----|--2----2----2--2--2-----|-----------------------0--| 
--0--------------------|---------------------0--|--0-----------0-----------| 
 
 
                                                                               
-------------------------|--------------------------|------------------------| 
-------------------------|--------------------------|------------------------| 
-------------------------|--------4--------4--4-----|--4----4----------------| 
--2--2--2----2--2--2-----|-----2-----2--------------|--4----4----9--9--9-----| 
--0--0--0----0--0--0-----|--------------------------|--2----2----9--9--9-----| 
----------------------0--|--0~----------0--------0--|------------7--7--7--0--| 
 
 
                                                                             
--------------------------|------------------------|-----------0-----------| 
--------------------------|------------------------|-----------------------| 
--------4--------4--4-----|------------------------|-----------------------| 
-----2-----2--------------|--2----2----2--2--2-----|--------4---------9----| 
--------------------------|--0----0----0--0--0-----|-----2------------7----| 
--4-----------4--------4--|---------------------0--|--0--------------------| 
 
 
                                                                               
------------------------|--------------------------|-------------------------| 
------------------------|--------------------------|-------------------------| 
--4----4----4--4--4-----|--------4--------4--4-----|-------------------------| 
--4----4----4--4--4-----|-----2-----2-----------2--|--2--2--2----2--2--2-----| 
--2----2----2--2--2-----|-----------------------0--|--0--0--0----0--0--0-----| 
---------------------0--|--0-----------0-----------|----------------------0--| 
 
 
                                                                                 
--------------------------|-------------------------|--------------------------| 
--------------------------|-------------------------|--------------------------| 
--------------------------|-------------------------|--------------------------| 
--------5--------5--------|--5--------5-------------|--------5--------5--------| 
-----7--------7-----0--7--|-----0--7-----0--7----7--|--7--7-----0--7-----0--7--| 
--5--------5--------------|-----------------5----5--|--5-----------------------| 
 
 
                           
--------------5--5/-----|| 
------------------------|| 
------------------------|| 
--5--------5------------|| 
-----0--7-----7--7/-----|| 
--------------5--5/-----|| 
 
 
 

	  

Search Paypal
auto scroll beats size up size down change color hide chords drawings
tab show chords e-chords YouTube Clip e-chords hide all tabs e-chords go to top tab