Bruce Dickinson

home > Bruce Dickinson

Tattoed millioaire live Tab

Bruce Dickinson

Difficulty: nolevelnolevel

by Vallim+guitar

tuner correct add songbook print version text version save to e-mail
chordsukulelecavacokeyboardtabbassdrumsharmonicsflute Guitar Pro
chords

Tattoed millioaire live

  		  
  E E E E +Q   Q    E E E E +Q   Q    E E E E +S  S E E E   W 
|-5-5-5-4-(4)-----|-----------------|-5-5-5-4-(4)---5---7-|-7----| 
|-5-5-5-5-(5)-----|-5-5-5-4-(4)-----|-5-5-5-5-(5)---5---7-|-7----| 
|-----------------|-4-4-4-4-(4)-----|---------------------|------| 
|-----------------|-----------------|---------------------|------| 
|-----------------|-----------------|---------------------|------| 
|-----------------|-----------------|---------------------|------| 
 
 
  E E E E +Q   Q    E E E E +Q   Q    E E E E +S  S E E E   W 
|-5-5-5-4-(4)-----|-----------------|-5-5-5-4-(4)---5---7-|-7----| 
|-5-5-5-5-(5)-----|-5-5-5-4-(4)-----|-5-5-5-5-(5)---5---7-|-7----| 
|-----------------|-4-4-4-4-(4)-----|---------------------|------| 
|-----------------|-----------------|---------------------|------| 
|-----------------|-----------------|---------------------|------| 
|-----------------|-----------------|---------------------|------| 
 
 
  E E E E +Q   Q    E E E E +Q   Q    E E E E +S  S E E E   W 
|-5-5-5-4-(4)-----|-----------------|-5-5-5-4-(4)---5---7-|-7----| 
|-5-5-5-5-(5)-----|-5-5-5-4-(4)-----|-5-5-5-5-(5)---5---7-|-7----| 
|-----------------|-4-4-4-4-(4)-----|---------------------|------| 
|-----------------|-----------------|---------------------|------| 
|-----------------|-----------------|---------------------|------| 
|-----------------|-----------------|---------------------|------| 
 
 
  E E E E +Q   Q    E E E E +Q   Q    E E E E +S  S E E E   W 
|-5-5-5-4-(4)-----|-----------------|-5-5-5-4-(4)---5---7-|-7----| 
|-5-5-5-5-(5)-----|-5-5-5-4-(4)-----|-5-5-5-5-(5)---5---7-|-7----| 
|-----------------|-4-4-4-4-(4)-----|---------------------|------| 
|-----------------|-----------------|---------------------|------| 
|-----------------|-----------------|---------------------|------| 
|-----------------|-----------------|---------------------|------| 
 
 
  E E E E +Q   Q    E E E E +Q   Q    E E E E +S  S E E E   W 
|-5-5-5-4-(4)-----|-----------------|-5-5-5-4-(4)---5---7-|-7----| 
|-5-5-5-5-(5)-----|-5-5-5-4-(4)-----|-5-5-5-5-(5)---5---7-|-7----| 
|-----------------|-4-4-4-4-(4)-----|---------------------|------| 
|-----------------|-----------------|---------------------|------| 
|-----------------|-----------------|---------------------|------| 
|-----------------|-----------------|---------------------|------| 
 
 
  E E E E +Q   Q    E E E E +Q   Q    E E E E +S  S E E E   W 
|-5-5-5-4-(4)-----|-----------------|-5-5-5-4-(4)---5---7-|-7----| 
|-5-5-5-5-(5)-----|-5-5-5-4-(4)-----|-5-5-5-5-(5)---5---7-|-7----| 
|-----------------|-4-4-4-4-(4)-----|---------------------|------| 
|-----------------|-----------------|---------------------|------| 
|-----------------|-----------------|---------------------|------| 
|-----------------|-----------------|---------------------|------| 
 
 
  Q.   E H      E E E E Q  Q    Q.   E H      E E E E E E E E 
|-------------|---------------|-------------|-----------------| 
|-------------|---------------|-------------|-----------------| 
|------4-4----|-----4-2-2--2--|-2----4-4----|---6-6-4-4-6-6---| 
|-7----4-4----|---2---2-2--2--|-2----4-4----|---6-6-4-4-6-6---| 
|-7-----------|-------0-0--0--|-0----2-2----|---4-4-----4-4---| 
|-5----7-7----|-4-------------|-------------|-------7-7-------| 
 
 
  Q.   E H      E E E E Q  Q    Q.   E +H       E E E E E E E E 
|-------------|---------------|---------------|-----------------| 
|-------------|---------------|---------------|-----------------| 
|-2----4-4----|-----4-2-2--2--|-2----4-(4)----|---6-6-4-4-6-6---| 
|-2----4-4----|---2---2-2--2--|-2----4-(4)----|---6-6-4-4-6-6---| 
|-0----2-2----|-------0-0--0--|-0----2-(2)----|---4-4-----4-4---| 
|-------------|-4-------------|---------------|-------7-7-------| 
 
 
  E E E E +E  E E E   E E E E E E E E   E E E E E E E E   Q  Q  E E Q 
|-------------------|-----------------|-----------------|--------------| 
|-------5-(5)-------|-----------------|-----------------|--------------| 
|-4-4-4-4-(4)-4-4-4-|-4-4-4-4-4-4-4-4-|-----4-----4-4---|--------------| 
|-2-2-2-2-(2)-2-2-2-|-4-4-4-4-4-4-4-4-|---2---2---------|--------------| 
|-------------------|-2-2-2-2-2-2-2-2-|-----------------|-7--7--7-7-7--| 
|---0---------------|-----------------|-4-------4-----4-|-5--5--5-5-5--| 
 
 
  Q  E E +E  E E E   E E E E E E E E   E E E E E E E E   +Q   Q  E E E E 
|------------------|-----------------|-----------------|-----------------| 
|------------------|-----------------|-----------------|-----------------| 
|------9-(9)-9-9-9-|-----------------|-----4-----4-4---|-----------------| 
|-9--9-------------|-9-9-9-9-9-9-9-9-|---2---2---------|-----------------| 
|-7----------------|-9-9-9-9-9-9-9-9-|---------------7-|-(7)--7--7-7-7---| 
|-0----------------|-7-7-7-7-7-7-7-7-|-4-------4-----5-|-(5)--5--5-5-5-0-| 
 
 
  Q  E E +E   E  E E   Q  Q  E E E E   E E E E E E E E   Q  Q  E E E E 
|--------------------|---------------|-----------------|---------------| 
|--------------------|---------------|-----------------|---------------| 
|------9-(9)---------|-4--4--4-4-4---|-----4-----4-4---|---------------| 
|-9--9--------9--9---|-4--4--4-4-4---|---2---2---------|---------------| 
|-7----------------7-|---------------|-----------------|-7--7--7-7-7---| 
|-0----------12-12-5-|-7--7--7-7-7-0-|-4-------4-----4-|-5--5--5-5-5-0-| 
 
 
  E E E E +E   E  E E   Q  Q  E E E E   E E E E E E E E   H.      Q 
|---------------------|---------------|-----------------|------------| 
|---------------------|---------------|-----------------|------------| 
|-------9-(9)---------|-4--4--4-4-4---|-----4-----4-4---|------------| 
|-9---9--------9--9---|-4--4--4-4-4---|---2---2---------|------------| 
|-7-7---------------7-|---------------|-----------------|-7----------| 
|-0-----------12-12-5-|-7--7--7-7-7-0-|-4-------4-----4-|-5----------| 
 
 
  E E E E +Q   Q    E E E E +Q   Q    E E E E +S  S E E E   W 
|-5-5-5-4-(4)-----|-----------------|-5-5-5-4-(4)---5---7-|-7----| 
|-5-5-5-5-(5)-----|-5-5-5-4-(4)-----|-5-5-5-5-(5)---5---7-|-7----| 
|-----------------|-4-4-4-4-(4)-----|---------------------|------| 
|-----------------|-----------------|---------------------|------| 
|-----------------|-----------------|---------------------|------| 
|-----------------|-----------------|---------------------|------| 
 
 
  E E E E +Q   Q    E E E E +Q   Q    E E E E +S  S E E E   W 
|-5-5-5-4-(4)-----|-----------------|-5-5-5-4-(4)---5---7-|-7----| 
|-5-5-5-5-(5)-----|-5-5-5-4-(4)-----|-5-5-5-5-(5)---5---7-|-7----| 
|-----------------|-4-4-4-4-(4)-----|---------------------|------| 
|-----------------|-----------------|---------------------|------| 
|-----------------|-----------------|---------------------|------| 
|-----------------|-----------------|---------------------|------| 
 
 
  E E E E +Q   Q    E E E E +Q   Q    E E E E +S  S E E E   W 
|-5-5-5-4-(4)-----|-----------------|-5-5-5-4-(4)---5---7-|-7----| 
|-5-5-5-5-(5)-----|-5-5-5-4-(4)-----|-5-5-5-5-(5)---5---7-|-7----| 
|-----------------|-4-4-4-4-(4)-----|---------------------|------| 
|-----------------|-----------------|---------------------|------| 
|-----------------|-----------------|---------------------|------| 
|-----------------|-----------------|---------------------|------| 
 
 
  E E E E +Q   Q    E E E E +Q   Q    E E E E +S  S E E E   W 
|-5-5-5-4-(4)-----|-----------------|-5-5-5-4-(4)---5---7-|-7----| 
|-5-5-5-5-(5)-----|-5-5-5-4-(4)-----|-5-5-5-5-(5)---5---7-|-7----| 
|-----------------|-4-4-4-4-(4)-----|---------------------|------| 
|-----------------|-----------------|---------------------|------| 
|-----------------|-----------------|---------------------|------| 
|-----------------|-----------------|---------------------|------| 
 
 
  E E E E +E  E E E   E E E E E E E E   E E E E E E E E   Q  Q  E E Q 
|-------------------|-----------------|-----------------|--------------| 
|-------------------|-----------------|-----------------|--------------| 
|-------9-(9)-------|-----------------|-----4-----4-4---|--------------| 
|-9-9-9-9-(9)-9-9-9-|-9-9-9-9-9-9-9-9-|---2---2---------|--------------| 
|-7-7-7-7-(7)-7-7-7-|-9-9-9-9-9-9-9-9-|-----------------|-7--7--7-7-7--| 
|---0---------------|-7-7-7-7-7-7-7-7-|-4-------4-----4-|-5--5--5-5-5--| 
 
 
  Q  E E +E  E E E   E E E E E E E E   E E E E E E E E   +Q   Q  E E E E 
|------------------|-----------------|-----------------|-----------------| 
|------------------|-----------------|-----------------|-----------------| 
|------9-(9)-9-9-9-|-----------------|-----4-----4-4---|-----------------| 
|-9--9-------------|-9-9-9-9-9-9-9-9-|---2---2---------|-----------------| 
|-7----------------|-9-9-9-9-9-9-9-9-|---------------7-|-(7)--7--7-7-7---| 
|-0----------------|-7-7-7-7-7-7-7-7-|-4-------4-----5-|-(5)--5--5-5-5-0-| 
 
 
  Q  E E +E   E  E E   Q  Q  E E E E   E E E E E E E E   Q  Q  E E E E 
|--------------------|---------------|-----------------|---------------| 
|--------------------|---------------|-----------------|---------------| 
|------9-(9)---------|-4--4--4-4-4---|-----4-----4-4---|---------------| 
|-9--9--------9--9---|-4--4--4-4-4---|---2---2---------|---------------| 
|-7----------------7-|---------------|-----------------|-7--7--7-7-7---| 
|-0----------12-12-5-|-7--7--7-7-7-0-|-4-------4-----4-|-5--5--5-5-5-0-| 
 
 
  E E E E +E   E  E E   Q  Q  E E E E   E E E E E E E E   H.      Q 
|---------------------|---------------|-----------------|------------| 
|---------------------|---------------|-----------------|------------| 
|-------9-(9)---------|-4--4--4-4-4---|-----4-----4-4---|------------| 
|-9---9--------9--9---|-4--4--4-4-4---|---2---2---------|------------| 
|-7-7---------------7-|---------------|-----------------|-7----------| 
|-0-----------12-12-5-|-7--7--7-7-7-0-|-4-------4-----4-|-5----------| 
 
 
  E E E E E E E E   E E E E E E +E  E   E E E E E E E E   E E E E E E E E 
|-----------------|-------------------|-----------------|-----------------| 
|-----------------|-------------------|-----------------|-----------------| 
|-----------------|-------------------|-----------------|-----------------| 
|-7---5-7---5-7---|-5-7---5-7-------7-|-7---5-7---5-7---|-5-7---5-7---5---| 
|---7-----7-----7-|-----7-----7-(7)---|---7-----7-----7-|-----7-----7-----| 
|-5-----5-----5---|---5-------5-(5)-5-|-5-----5-----5---|---5-----5-------| 
 
 
  Q.   E +E  E +E  E   +Q   E E Q.   E   +E  E +Q   H      E E Q  +E  E +Q 
|-4----5-(5)-7-(7)-9-|-(9)--7-5-4----5-|-(5)-7-(7)--9----|-7-5-4--(4)-5-(5)--| 
|--------------------|-----------------|-----------------|-------------------| 
|--------------------|-----------------|-----------------|-------------------| 
|--------------------|-----------------|-----------------|-------------------| 
|--------------------|-----------------|-----------------|-------------------| 
|--------------------|-----------------|-----------------|-------------------| 
 
 
  Q.   E +Q   E E   Q.   E +H       +E  E  Q   +H 
|-7----9-(9)--7-5-|-4----7-(7)----|-(7)-9-12--(12)----| 
|-----------------|---------------|-------------------| 
|-----------------|---------------|-------------------| 
|-----------------|---------------|-------------------| 
|-----------------|---------------|-------------------| 
|-----------------|---------------|-------------------| 
 
 
   S  S  S  S  S  S  S  S  S  S  S  S  S  S  S  S 
|-12-------------12----------12----------12-------| 
|----14----12-14-14-12-12-14-14-12-12-14-14-12-12-| 
|----16-13-------------13----------13----------13-| 
|-------------------------------------------------| 
|-------------------------------------------------| 
|-------------------------------------------------| 
 
 
   Q.    E  Q   E  E    Q.   E Q  S S E 
|-12----12-12--------|------------------| 
|--------------------|-12-----------7---| 
|-----------------13-|-11----9-9--9-9-6-| 
|--------------14----|------------------| 
|--------------------|------------------| 
|--------------------|------------------| 
 
 
  S S E Q  +H       S S S S S S S S S S S S S S S S 
|-----------------|---7-9---7-9---7-9---7-9-9-7-9-7-| 
|-5-7---7--(7)----|-9-----9-----9-----9-------9---9-| 
|---9-6-----------|---------------------------------| 
|-----------------|---------------------------------| 
|-----------------|---------------------------------| 
|-----------------|---------------------------------| 
 
 
  S S S S S S S S S S S S S S S S    E  E  E  E  E  S  S  E  E    H     Q   Q 
|-9-7-9-7-9-8-9-7-9-7-9-7-9-7-9-7-|-14-14-12-11-12-11-12-------|---------------| 
|---9---9---9---9---9---9---9---9-|-------------------16-14-12-|-14----12--12--| 
|---------------------------------|----------------------------|---------------| 
|---------------------------------|----------------------------|---------------| 
|---------------------------------|----------------------------|---------------| 
|---------------------------------|----------------------------|---------------| 
 
 
   Q   E  E  +Q.    E    E  S  S  E  E  H 
|-----12-11-(11)---14-|-16-14-16-------------| 
|-14------------------|-------19-17-16-14----| 
|---------------------|----------------------| 
|---------------------|----------------------| 
|---------------------|----------------------| 
|---------------------|----------------------| 
 
 
   Q   E  E  +Q.    E    Q   Q   +H 
|-----12-11-(11)---14-|-14--12--(12)----| 
|-14------------------|-----------------| 
|---------------------|-----------------| 
|---------------------|-----------------| 
|---------------------|-----------------| 
|---------------------|-----------------| 
 
 
   Q   E  E  +Q.    E    E  S  S  E  E  H       Q   E  E  +Q.   S  S 
|-----12-11-(11)---14-|-16-14-16-------------|-----12-11-(11)---9-11-| 
|-14------------------|-------19-17-16-14----|-14--------------------| 
|---------------------|----------------------|-----------------------| 
|---------------------|----------------------|-----------------------| 
|---------------------|----------------------|-----------------------| 
|---------------------|----------------------|-----------------------| 
 
 
   S  S  S  S  S  S  S  S  S  S  S  S  S  S  S  S 
|-12----------------------------------------------| 
|----14-16-17-19-------19-21----19-21-22----21-22-| 
|----------------20-21-------21----------23-------| 
|-------------------------------------------------| 
|-------------------------------------------------| 
|-------------------------------------------------| 
 
 
   E E E E E E E E   Q  Q  E E E E 
|-19---------------|----------------| 
|------------------|----------------| 
|------4-----4-4---|-4--4--4-4-4----| 
|----2---2---------|-4--4--4-4-4----| 
|------------------|----------------| 
|--0-------0-----0-|-7--7--7-7-7-0--| 
 
 
  E E E E E E E E   Q  Q  E E E E   E E E E +Q    Q    Q  Q  E E E E 
|-----------------|---------------|------------------|---------------| 
|-----------------|---------------|------------------|---------------| 
|-----4-----4-4---|---------------|-------9-(9)------|---------------| 
|---2---2---------|---------------|---------------9--|-9--9--9-9-9---| 
|-----------------|-7--7--7-7-7---|-----9------------|-9--9--9-9-9---| 
|-4-------4-----4-|-5--5--5-5-5-0-|-0-7----------12--|-7--7--7-7-7-0-| 
 
 
  E E E E E E E E   E E Q  E E E E   E E E E E E E E   Q  Q  E E E E 
|-----------------|----------------|-----------------|---------------| 
|-----------------|----------------|-----------------|---------------| 
|-----------------|----------------|-----------------|---------------| 
|-----9-----9-9---|----------------|-----9-----9-9---|-9--9--9-9-9---| 
|---7---7-------7-|-7-7-7--7-7-7---|---7---7---------|-9--9--9-9-9---| 
|-0-------0-----5-|-5-5-5--5-5-5-0-|-0-------0-----0-|-7--7--7-7-7-0-| 
 
 
  E E E E E E E E   Q  Q  E E E E   E E E E +Q    Q    Q  Q  E E E E 
|-----------------|---------------|------------------|---------------| 
|-----------------|---------------|------------------|---------------| 
|-----4-----4-4---|---------------|-------9-(9)------|---------------| 
|---2---2---------|---------------|---------------9--|-9--9--9-9-9---| 
|-----------------|-7--7--7-7-7---|-----9------------|-9--9--9-9-9---| 
|-4-------4-----4-|-5--5--5-5-5-0-|-0-7----------12--|-7--7--7-7-7-0-| 
 
 
  E E E E E E E E   E E Q  E E E E   E E E E E E E E   E E E E E E +E  E 
|-----------------|----------------|-----------------|-------------------| 
|-----------------|----------------|-----------------|-------------------| 
|-----------------|----------------|-----------------|-------------------| 
|-----9-----9-9---|----------------|-----5-----5-----|-5-----5-----------| 
|---7---7-------7-|-7-7-7--7-7-7---|---7-----7-----7-|-----7-----7-(7)-7-| 
|-0-------0-----5-|-5-5-5--5-5-5-0-|-5-----5-----5---|---5-----5-5-(5)-5-| 
 
 
  E E E E E E E E   E E E E E E +Q 
|-----------------|---------5-5-(5)--*| 
|-----------------|------------------*| 
|-----------------|------------------*| 
|-----5-----5-----|-5-----5----------*| 
|-7-7-----7-----7-|-----7---7-7-(7)--*| 
|-5-----5-----5---|---5-----5-5-(5)--*| 
 
 
 
 

	  

Full key step upFull key step up
Half key step upHalf key step up
Half key step downHalf key step down
Full key step downFull key step down
Search Paypal
auto scroll beats size up size down change color hide chords drawings
tab show chords e-chords YouTube Clip e-chords hide all tabs e-chords go to top tab