Bruce Dickinson

home > Bruce Dickinson

Man Of Sorrow Tab

Bruce Dickinson

Difficulty: nolevelnolevel

tuner correct add songbook print version text version save to e-mail
chordsukulelecavacokeyboardtabbassdrumsharmonicsflute Guitar Pro
chords

Man Of Sorrow

  		Rythm under solo: 
|-------------------------|------------------| 
|-------------------------|------------------| 
|--4--4--4--4--4--------|------------------| 
|--4--4--4--4--4--------|------------------| 
|--2--2--2--2--2--------|------------------| 
|-------------------------|------------------| 

-------------------------|------------------------|-------------------------| 
-------------------------|------------------------|-------------------------| 
--7--7--7--7--7--------|--9--9--9--9--9--------|--4--4--4--4--4--------| 
--7--7--7--7--7--------|--9--9--9--9--9--------|--4--4--4--4--4--------| 
--5--5--5--5--5--------|--7--7--7--7--7--------|--2--2--2--2--2--------| 
-------------------------|------------------------|-------------------------| 

------------------|-------------------------|------------------------| 
------------------|-------------------------|------------------------| 
------------------|--5--5--5--5--5--------|--2--2--2--2--2--------| 
------------------|--5--5--5--5--5--------|--2--2--2--2--2--------| 
------------------|--3--3--3--3--3--------|--0--0--0--0--0--------| 
------------------|-------------------------|------------------------| 

-------------------------|------------------|------------------------| 
-------------------------|------------------|------------------------| 
--4--4--4--4--4--------|------------------|--7--7--7--7--7--------| 
--4--4--4--4--4--------|------------------|--7--7--7--7--7--------| 
--2--2--2--2--2--------|------------------|--5--5--5--5--5--------| 
-------------------------|------------------|------------------------| 

-------------------------|-------------------|------------------| 
-------------------------|-------------------|------------------| 
--9--9--9--9--9--------|--4----------------|------------------| 
--9--9--9--9--9--------|--4----------------|------------------| 
--7--7--7--7--7--------|--2----------------|------------------| 
-------------------------|-------------------|------------------| 

-------------------|-------------------|-------------------|--------------------| 
-------------------|-------------------|-------------------|--------------------| 
--5----------------|--7----------------|-------------------|--------------------| 
--5----------------|--7----------------|--2----------------|----------------5--| 
--3----------------|--5----------------|--2----------------|----------------5--| 
--------------------|-------------------|--0----------------|----------------3--| 

-------------------|-------------------|------------------|-------------------| 
-------------------|-------------------|------------------|-------------------| 
-------------------|-------------------|------------------|----------------5--| 
----------------7--|----------------2--|------------------|----------------5--| 
----------------7--|----------------2--|------------------|----------------3--| 
----------------5--|----------------0--|------------------|-------------------| 

-------------------|-------------------|------------------|--------------------| 
-------------------|-------------------|------------------|--------------------| 
-------------------|-------------------|------------------|--------------------| 
----------------7--|----------------2--|------------------|----------------5--| 
----------------7--|----------------2--|------------------|----------------5--| 
----------------5--|----------------0--|------------------|----------------3--| 

-------------------|-------------------|------------------|-------------------| 
-------------------|-------------------|------------------|-------------------| 
-------------------|-------------------|------------------|----------------5--| 
----------------7--|----------------2--|------------------|----------------5--| 
----------------7--|----------------2--|------------------|----------------3--| 
----------------5--|----------------0--|------------------|-------------------| 

-------------------| 
-------------------| 
----------------7--| 
----------------7--| 
----------------5--| 

Solo(Lead Guitar) 
|---------------------------------------------| 
|--7p-4p-0h-4p-0h-4--7p-4p-0h-4p-0h-4--| 
|---------------------------------------------| 
|---------------------------------------------| 
|---------------------------------------------| 
|---------------------------------------------| 

---------------------------------------------|--------------------------------------------| 
--7p-4p-0h-4p-0h-4--7p-4p-0h-4p-0h-4--|--8p-5p-0h-5p-0h-5--8p-5p-0h-5p-0h-5--| 
---------------------------------------------|--------------------------------------------| 
---------------------------------------------|--------------------------------------------| 
---------------------------------------------|--------------------------------------------| 
---------------------------------------------|--------------------------------------------| 

-----------------------------------------------|---------------------------------------------| 
--10p-7p-0h-7p-0h-7--10p-7p-0h-7p-0h-7--|--7p-4p-0h-4p-0h-4--7p-4p-0h-4p-0h-4--| 
-----------------------------------------------|---------------------------------------------| 
-----------------------------------------------|---------------------------------------------| 
-----------------------------------------------|---------------------------------------------| 
-----------------------------------------------|---------------------------------------------| 

---------------------------------------------|--------------------------------------------| 
--7p-4p-0h-4p-0h-4--7p-4p-0h-4p-0h-4--|--8p-5p-0h-5p-0h-5--8p-5p-0h-5p-0h-5--| 
---------------------------------------------|--------------------------------------------| 
---------------------------------------------|--------------------------------------------| 
---------------------------------------------|--------------------------------------------| 
---------------------------------------------|--------------------------------------------| 

-----------------------------------------------|---------------------------------------------| 
--10p-7p-0h-7p-0h-7--10p-7p-0h-7p-0h-7--|--7p-4p-0h-4p-0h-4--7p-4p-0h-4p-0h-4--| 
-----------------------------------------------|---------------------------------------------| 
-----------------------------------------------|---------------------------------------------| 
-----------------------------------------------|---------------------------------------------| 
-----------------------------------------------|---------------------------------------------| 

---------------------------------------------|--------------------------------------------| 
--7p-4p-0h-4p-0h-4--7p-4p-0h-4p-0h-4--|--8p-5p-0h-5p-0h-5--8p-5p-0h-5p-0h-5--| 
---------------------------------------------|--------------------------------------------| 
---------------------------------------------|--------------------------------------------| 
---------------------------------------------|--------------------------------------------| 
---------------------------------------------|--------------------------------------------| 

-----------------------------------------------|---------------------------------------------| 
--10p-7p-0h-7p-0h-7--10p-7p-0h-7p-0h-7--|--7p-0h-4p-0h-4p-0--8p-0h-5p-0h-5p-0--| 
-----------------------------------------------|---------------------------------------------| 
-----------------------------------------------|---------------------------------------------| 
-----------------------------------------------|---------------------------------------------| 
-----------------------------------------------|---------------------------------------------| 

---------------------------------------------|----------------------------------------------| 
--7p-0h-4p-0h-4p-0--8p-0h-5p-0h-5p-0--|--10p-0h-7p-0h-7p-0--8p-0h-5p-0h-5p-0--| 
---------------------------------------------|----------------------------------------------| 
---------------------------------------------|----------------------------------------------| 
---------------------------------------------|----------------------------------------------| 
---------------------------------------------|----------------------------------------------| 

---------------------------------------------|--------------12--14--| 
--10p-0h-7p-0h-7p-0--12p-0h-8p-0--15b-|-----------------------| 
---------------------------------------------|-----------------------| 
---------------------------------------------|-----------------------| 
---------------------------------------------|-----------------------| 
---------------------------------------------|-----------------------| 

--15--14--12-7--------------|---------------------------|-------------------| 
-----------------8p-7---------|---------------------------|-------------------| 
-----------------------9p-7---|-----7---------------------|-------------------| 
-------------------------------|--9-----9--8--7-5--------|-------------------| 
-------------------------------|--------------------7/-9~-|----------------9--| 
-------------------------------|---------------------------|-------------------| 

----------------------------------|-----------------------| 
----------------------------------|-------------------8---| 
----------------------------------|------9~--------------| 
------------------------9--10----|--12------------------| 
----10-9-----9--10--12---------|-----------------------| 
---------12----------------------|-----------------------| 

--------------------------|------------------------| 
----------8p-7--------7-|--3-----------------17-| 
-------7-----------7-----|-----------------16-----| 
----9-----------9--------|------------------------| 
--------------------------|------------------------| 
--------------------------|------------------------| 

--19p-15--------------15--19p-15--------------15--| 
----------17------17--------------17------17--------| 
--------------16----------------------16-------------| 
-------------------------------------------------------| 
-------------------------------------------------------| 
-------------------------------------------------------| 

--19p-15--------------15--19p-15--------------15--| 
----------17------17--------------17------17--------| 
--------------16----------------------16-------------| 
-------------------------------------------------------| 
-------------------------------------------------------| 
-------------------------------------------------------| 

--19p-15---------------------------------19b-|--------19b-------15b-| 
----------17-----------------------------------|------------------------| 
--------------17p-0h-16p-0h-17p-0h-16------|------------------------| 
------------------------------------------------|------------------------| 
------------------------------------------------|------------------------| 
------------------------------------------------|------------------------| 

----15--14--12------------------|--------------------------------| 
----------------15--13--12------|--------------------------------| 
----------------------------15---|--14p-12------14----12--------| 
----------------------------------|----------14--------------------| 
----------------------------------|--------------------------14----| 
----------------------------------|---------------------------------| 

-------------------------------------------| 
-------------------------------------------| 
-------------------------------------------| 
--12--------------------------------------| 
------14--13--12-10------10--9~~~~~-| 
----------------------12------------------| 

 Both Guitars: 
|------------------|------------------|-------------------| 
|------------------|------------------|-------------------| 
|--4---------------|------------------|--5----------------| 
|--4---------------|------------------|--5----------------| 
|--2---------------|------------------|--3----------------| 
|------------------|------------------|-------------------| 

|----------------------|------------------| 
|----------------------|------------------| 
|--2------2------7----|------------------| 
|--2------2------7----|------------------| 
|--0------0------5----|------------------| 
|----------------------|------------------| 

Chorus 2x(repeat intro 2x) 

Last Riff(Guitar 1) 
|----------------------------| 
|----------------------------| 
|----------------------------| 
|----------------------------| 
|--7--5-----7--5-----7--5--| 
|--------7--------7---------| 

--------------------------|----------------------------|--------------------------| 
--------------------------|----------------------------|--------------------------| 
--------------------------|----------------------------|--------------------------| 
--------------------------|----------------------------|--------------------------| 
-----7--5-----7--5-------|--7--5-----7--5-----7--5--|-----7--5-----7--5-------| 
--7--------7--------7----|--------7--------7---------|--7--------7--------7-----| 

----------------------------|--------------------------|----------------------| 
----------------------------|--------------------------|----------------------| 
----------------------------|--------------------------|--9--9--9------------| 
----------------------------|--------------------------|--9--9--9------------| 
--7--5-----7--5-----7--5--|-----7--5-----7--5-------|--7--7--7------------| 
--------7--------7----------|--7--------7--------7----|----------------------| 

Last Riff(Guitar 2) 
|----------------------------| 
|----------------------------| 
|----------------------------| 
|--5--4-----5--4-----5--4--| 
|--------7--------7---------| 
|----------------------------| 

--------------------------|----------------------------|---------------------------| 
--------------------------|----------------------------|---------------------------| 
--------------------------|--4--2-----4--2-----4--2--|-----4--2-----4--2-------| 
-----5--4-----5--4-------|--------5--------5---------|--5--------5--------5-----| 
--7--------7--------7----|----------------------------|---------------------------| 
--------------------------|----------------------------|---------------------------| 

----------------------------|--------------------------|--------------------------| 
----------------------------|--------------------------|--------------------------| 
--9--7-----9--7-----9--7--|-----9--7-----9--7-------|--12--12--12------------| 
--------9--------9---------|--9--------9--------9-----|--12--12--12-----------| 
----------------------------|---------------------------|--10--10--10-----------| 
----------------------------|---------------------------|-------------------------| 


_______________________________________________________
Contribuição: Rodrigo Oki Murai([email protected])
	  

Search Paypal
auto scroll beats size up size down change color hide chords drawings
tab show chords e-chords YouTube Clip e-chords hide all tabs e-chords go to top tab