Bruce Dickinson

home > Bruce Dickinson

Laughing in the Hiding Bush Tab

Bruce Dickinson

Difficulty: EasyEasy

tuner correct add songbook print version text version save to e-mail
chordsukulelecavacokeyboardtabbassdrumsharmonicsflute Guitar Pro
chords

Laughing in the Hiding Bush

Year: 1994 - Album: The Best of Bruce Dickinson

  		intro 
--------------------------------------------------------------------- 
--------------------------------------------------------------------- 
-5--/7-7--7--7--8\7-7--7\6-6-6--6\5-5-5--5--/7-7--7--7--8\7-7-------- 
-5--/7-7--7--7--8\7-7--7\6-6-6--6\5-5-5--5--/7-7--7--7--8\7-7--6-6-5- 
-3--/5-5--5--5--6\5-5--5\4-4-4--4\3-3-3--3--/5-5--5--5--6\5-5--6-6-5- 
---------------------------------------------------------------4-4-3- 
 
intro lead 
-------0-------0------0-----------0-------0------0--- 
---3-----3-------3------3-----3-----3-------3------3- 
-----2-----2--------------------2-----2-------------- 
-0-----------3------2-------0-----------3------2----- 
----------------------------------------------------- 
----------------------------------------------------- 
 
verse- let ring 
------------------------------------------------------------------ 
------------------------------------------------------------------ 
--4--4-4-4-4--4--4--3--3-3-3-3--3--3---7-8-7-5-7-5-----5---------- 
--4--4-4-4-4--4--4--3--3-3-3-3--3--3----------------8-----8-7-8-7- 
--2--2-2-2-2--2--2--1--1-1-1-1--1--1---5-6-5-3-5-3-----3---------- 
----------------------------------------------------6-----6-5-6-5- 
 
chorus- both guitars 
--------------------------------------------------------------------- 
--------------------------------------------------------------------- 
-----------------------5-7-7--10-10-10-10-10------------------------- 
--6--6--5--3--6--6--5--5-7-7--10-10-10-10-10--6--6--5--3--6--6--3--5- 
--6--6--5--3--6--6--5--3-5-5--8--8--8--8--8---6--6--5--3--6--6--3--5- 
--4--4--3--1--4--4--3-------------------------4--4--3--1--4--4--1--3- 
 
before solo  
-------------------- 
-------------------- 
-------------------- 
-6\5--5\4--4\3--3\2- 
-6\5--5\4--4\3--3\2- 
-4\3--3\2--2\1--1\0- 
 
bridge before and after solo 
---------------------------------------------------------------------- 
---------------------------------------------------------------------- 
-7------9--9---------------------------------------------------------- 
-7------9--9-------3------2--2---------------------------------------- 
-5------7--9-------3------2--2-------5--5--5--5--5--5--5-3-5--3------- 
-------------------1------0--0-------3--3--3--3--3--3--3-1-3--5--5--5- 
 
rhytm for Solo- x4 
------------------------------------------------------------- 
------------------------------------------------------------- 
------------------------------------------------------------- 
------------------------------------------------------------- 
--7--7--7--7-5-7--8--8--8--8--8--8--8-7-8--10-10-10-10-10-10- 
--5--5--5--5-3-5--6--6--6--6--6--6--6-5-6--8--8--8--8--8--8-- 

	  

Search Paypal
auto scroll beats size up size down change color hide chords drawings
tab show chords e-chords YouTube Clip e-chords hide all tabs e-chords go to top tab