Bruce Dickinson

Born in 58 (ver. 2) Tab

Bruce Dickinson

Difficulty: nolevelnolevel

by Vallim+guitar

tuner correct add songbook print version text version save to e-mail
chordsukulelecavacokeyboardtabbassdrumsharmonicsflute Guitar Pro
close

there isn't a video lesson for this song

chords

Born in 58 (ver. 2)

  		 
  W          E E E E  E E E E   E E  E  E  +E  E +Q     E E E E  E E E E 
|----------|-------3----------|-----------------------|-------3-----------| 
|----------|-----3----8-7-----|----------------8-(8)--|-----3----8-7------| 
|----------|--------------7---|-----------------------|--------------7----| 
|----------|---5------------7-|------9-10-(10)--------|---5------------7--| 
|----------|------------------|---7-10-12-(12)--------|-------------------| 
|----------|-3-------10-------|-5---------------------|-3-------10--------| 
 
 
  E E E E +H       E E E E  E E E E   E E  E  E  +E  E +Q     E E E E  E E E E 
|----------------|-------3----------|-----------------------|-------3----------| 
|----------------|-----3----8-7-----|----------------8-(8)--|-----3----8-7-----| 
|-----5-4-(4)----|--------------7---|-----------------------|--------------7---| 
|----------------|---5------------7-|------9-10-(10)--------|---5------------7-| 
|---7------------|------------------|---7-10-12-(12)--------|------------------| 
|-5--------------|-3-------10-------|-5---------------------|-3-------10-------| 
 
 
  E E E E +H       Q.     E +Q    Q 
|----------------|--------------------| 
|----------------|--------------------| 
|-----5-4-(4)----|--------------------| 
|----------------|--------------------| 
|---7------------|-2------3-(3)---5---| 
|-5--------------|--------------------| 
| 
| Gtr II 
| W                E  E E E  E  E E E 
|----------------|--------------------| 
|----------------|--------------------| 
|----------------|--------------------| 
|----------------|--------------------| 
|----------------|-5--5-5-5--5--5-5-5-| 
|----------------|-3--3-3-3--3--3-3-3-| 
 
 
  +H        H         Q.     E +Q     Q 
|-------------------|---------------------| 
|-------------------|---------------------| 
|-------------------|---------------------| 
|-------------------|---------------------| 
|-(5)---------------|---------------------| 
|-------------------|-7------8-(8)---10---| 
| 
|  E  E E E E E E E   E  E E E  E  E  E E 
|-------------------|---------------------| 
|-------------------|---------------------| 
|-------------------|---------------------| 
|-------------------|---------------------| 
|--5--5-5-5-5-5-5-5-|-2--2-2-2--2--2--2-2-| 
|--3--3-3-3-3-3-3-3-|-0--0-0-0--0--0--0-0-| 
 
 
   +H        H         Q.     E +Q     Q 
|--------------------|---------------------| 
|--------------------|---------------------| 
|--------------------|---------------------| 
|--------------------|---------------------| 
|--------------------|---------------------| 
|-(10)---------------|-7------8-(8)---10---| 
| 
|   E  E E E E E E E   E  E E E  E  E  E E 
|--------------------|---------------------| 
|--------------------|---------------------| 
|--------------------|---------------------| 
|--------------------|-5--5-5-5--5--5--5-5-| 
|---2--2-2-2-2-2-2-2-|-3--3-3-3--3--3--3-3-| 
|---0--0-0-0-0-0-0-0-|---------------------| 
 
 
   +H        H         Q.     E +Q     Q 
|--------------------|---------------------| 
|--------------------|---------------------| 
|--------------------|---------------------| 
|--------------------|---------------------| 
|--------------------|---------------------| 
|-(10)---------------|-7------8-(8)---10---| 
| 
|   E  E E E E E E E   E  E E E  E  E  E E 
|--------------------|---------------------| 
|--------------------|---------------------| 
|--------------------|---------------------| 
|---5--5-5-5-5-5-5-5-|---------------------| 
|---3--3-3-3-3-3-3-3-|-5--5-5-5--5--5--5-5-| 
|--------------------|-3--3-3-3--3--3--3-3-| 
 
 
   +H        H         Q.     E +Q     Q 
|--------------------|---------------------| 
|--------------------|---------------------| 
|--------------------|---------------------| 
|--------------------|---------------------| 
|--------------------|---------------------| 
|-(10)---------------|-7------8-(8)---10---| 
| 
|   E  E E E E E E E   E  E E E  E  E  E E 
|--------------------|---------------------| 
|--------------------|---------------------| 
|--------------------|---------------------| 
|--------------------|---------------------| 
|---5--5-5-5-5-5-5-5-|-5--5-5-5--5--5--5-5-| 
|---3--3-3-3-3-3-3-3-|-3--3-3-3--3--3--3-3-| 
 
 
   +H        H         Q.     E +Q     Q 
|--------------------|---------------------| 
|--------------------|---------------------| 
|--------------------|---------------------| 
|--------------------|---------------------| 
|--------------------|---------------------| 
|-(10)---------------|-7------8-(8)---10---| 
| 
|   E  E E E E E E E   E  E E E  E  E  E E 
|--------------------|---------------------| 
|--------------------|---------------------| 
|--------------------|---------------------| 
|--------------------|---------------------| 
|---5--5-5-5-5-5-5-5-|-2--2-2-2--2--2--2-2-| 
|---3--3-3-3-3-3-3-3-|-0--0-0-0--0--0--0-0-| 
 
 
   +H        H         Q.     E +Q     Q 
|--------------------|---------------------| 
|--------------------|---------------------| 
|--------------------|---------------------| 
|--------------------|---------------------| 
|--------------------|---------------------| 
|-(10)---------------|-7------8-(8)---10---| 
| 
|   E  E E E E E E E   E  E E E  E  E  E E 
|--------------------|---------------------| 
|--------------------|---------------------| 
|--------------------|---------------------| 
|--------------------|-5--5-5-5--5--5--5-5-| 
|---2--2-2-2-2-2-2-2-|-3--3-3-3--3--3--3-3-| 
|---0--0-0-0-0-0-0-0-|---------------------| 
 
 
   +H        H         Q.     E +Q     Q 
|--------------------|---------------------| 
|--------------------|---------------------| 
|--------------------|---------------------| 
|--------------------|---------------------| 
|--------------------|---------------------| 
|-(10)---------------|-7------8-(8)---10---| 
| 
|   E  E E E E E E E   E  E E E  E  E  E E 
|--------------------|---------------------| 
|--------------------|---------------------| 
|--------------------|---------------------| 
|---5--5-5-5-5-5-5-5-|---------------------| 
|---3--3-3-3-3-3-3-3-|-5--5-5-5--5--5--5-5-| 
|--------------------|-3--3-3-3--3--3--3-3-| 
 
 
   +H        H        W              H       E  E E E   W 
|-------------------|--------------|------------------|--------------| 
|-------------------|--------------|------------------|--------------| 
|-------------------|--------------|------------------|--------------| 
|-------------------|--------------|------------------|--------------| 
|-------------------|--------------|------------------|--------------| 
|-(10)--------------|--------------|---------8--7-5-3-|--------------| 
| 
|   E  E E E E E Q    Q  Q  Q.   E   E E Q  +H          Q  Q  Q.   E 
|-------------------|-------3------|------------------|-------3------| 
|-------------------|----5--3----3-|------------------|----5--3------| 
|--------------2-2--|----4--0----2-|---5-5--(5)-------|----4--0----5-| 
|------------5-0-0--|----2-------0-|---5-5--(5)-------|----2-------5-| 
|---5--5-5-5-3------|--------------|---3-3--(3)-------|------------3-| 
|---3--3-3-3--------|-0------------|------------------|-0------------| 
 
 
  H       E  E E E   W              H       E  E E E   W 
|------------------|--------------|------------------|--------------| 
|------------------|--------------|------------------|--------------| 
|------------------|--------------|------------------|--------------| 
|------------------|--------------|------------------|--------------| 
|------------0-3-2-|--------------|---------3--2-0---|--------------| 
|------------------|--------------|----------------3-|--------------| 
| 
| E E Q  +H          Q  Q  Q.   E   E E Q  +H          Q  Q  Q.   E 
|------------------|-------3------|------------------|-------3------| 
|---3-3--(3)-------|----5--3----3-|------------------|----5--3----3-| 
|---2-2--(2)-------|----4--0----2-|---5-5--(5)-------|----4--0----2-| 
|---0-0--(0)-------|----2-------0-|---5-5--(5)-------|----2-------0-| 
|------------------|--------------|---3-3--(3)-------|--------------| 
|------------------|-0------------|------------------|-0------------| 
 
 
  Gtr II          Gtr I 
  E E Q  +H       E E E E  E E E E   E E  E  E  +E  E +Q     E E E E  E E E E 
|---------------|-------3----------|-----------------------|-------3----------| 
|---------------|-----3----8-7-----|----------------8-(8)--|-----3----8-7-----| 
|---2-2--(2)----|--------------7---|-----------------------|--------------7---| 
|---2-2--(2)----|---5------------7-|------9-10-(10)--------|---5------------7-| 
|---0-0--(0)----|------------------|---7-10-12-(12)--------|------------------| 
|---------------|-3-------10-------|-5---------------------|-3-------10-------| 
 
 
  E E E E +H       E E E E  E E E E   E E  E  E  +E  E +Q     E E E E  E E E E 
|----------------|-------3----------|-----------------------|-------3----------| 
|----------------|-----3----8-7-----|----------------8-(8)--|-----3----8-7-----| 
|-----5-4-(4)----|--------------7---|-----------------------|--------------7---| 
|----------------|---5------------7-|------9-10-(10)--------|---5------------7-| 
|---7------------|------------------|---7-10-12-(12)--------|------------------| 
|-5--------------|-3-------10-------|-5---------------------|-3-------10-------| 
 
 
  E E E E +H       Q.     E +Q    Q 
|----------------|--------------------| 
|----------------|--------------------| 
|-----5-4-(4)----|--------------------| 
|----------------|--------------------| 
|---7------------|-2------3-(3)---5---| 
|-5--------------|--------------------| 
| 
| Gtr II 
| W                E  E E E  E  E E E 
|----------------|--------------------| 
|----------------|--------------------| 
|----------------|--------------------| 
|----------------|--------------------| 
|----------------|-5--5-5-5--5--5-5-5-| 
|----------------|-3--3-3-3--3--3-3-3-| 
 
 
  +H        H         Q.     E +Q     Q 
|-------------------|---------------------| 
|-------------------|---------------------| 
|-------------------|---------------------| 
|-------------------|---------------------| 
|-(5)---------------|---------------------| 
|-------------------|-7------8-(8)---10---| 
| 
|  E  E E E E E E E   E  E E E  E  E  E E 
|-------------------|---------------------| 
|-------------------|---------------------| 
|-------------------|---------------------| 
|-------------------|---------------------| 
|--5--5-5-5-5-5-5-5-|-2--2-2-2--2--2--2-2-| 
|--3--3-3-3-3-3-3-3-|-0--0-0-0--0--0--0-0-| 
 
 
   +H        H         Q.     E +Q     Q 
|--------------------|---------------------| 
|--------------------|---------------------| 
|--------------------|---------------------| 
|--------------------|---------------------| 
|--------------------|---------------------| 
|-(10)---------------|-7------8-(8)---10---| 
| 
|   E  E E E E E E E   E  E E E  E  E  E E 
|--------------------|---------------------| 
|--------------------|---------------------| 
|--------------------|---------------------| 
|--------------------|-5--5-5-5--5--5--5-5-| 
|---2--2-2-2-2-2-2-2-|-3--3-3-3--3--3--3-3-| 
|---0--0-0-0-0-0-0-0-|---------------------| 
 
 
   +H        H         Q.     E +Q     Q 
|--------------------|---------------------| 
|--------------------|---------------------| 
|--------------------|---------------------| 
|--------------------|---------------------| 
|--------------------|---------------------| 
|-(10)---------------|-7------8-(8)---10---| 
| 
|   E  E E E E E E E   E  E E E  E  E  E E 
|--------------------|---------------------| 
|--------------------|---------------------| 
|--------------------|---------------------| 
|---5--5-5-5-5-5-5-5-|---------------------| 
|---3--3-3-3-3-3-3-3-|-5--5-5-5--5--5--5-5-| 
|--------------------|-3--3-3-3--3--3--3-3-| 
 
 
   +H        H         Q.     E +Q     Q 
|--------------------|---------------------| 
|--------------------|---------------------| 
|--------------------|---------------------| 
|--------------------|---------------------| 
|--------------------|---------------------| 
|-(10)---------------|-7------8-(8)---10---| 
| 
|   E  E E E E E E E   E  E E E  E  E  E E 
|--------------------|---------------------| 
|--------------------|---------------------| 
|--------------------|---------------------| 
|--------------------|---------------------| 
|---5--5-5-5-5-5-5-5-|-5--5-5-5--5--5--5-5-| 
|---3--3-3-3-3-3-3-3-|-3--3-3-3--3--3--3-3-| 
 
 
   +H        H         Q.     E +Q     Q 
|--------------------|---------------------| 
|--------------------|---------------------| 
|--------------------|---------------------| 
|--------------------|---------------------| 
|--------------------|---------------------| 
|-(10)---------------|-7------8-(8)---10---| 
| 
|   E  E E E E E E E   E  E E E  E  E  E E 
|--------------------|---------------------| 
|--------------------|---------------------| 
|--------------------|---------------------| 
|--------------------|---------------------| 
|---5--5-5-5-5-5-5-5-|-2--2-2-2--2--2--2-2-| 
|---3--3-3-3-3-3-3-3-|-0--0-0-0--0--0--0-0-| 
 
 
   +H        H         Q.     E +Q     Q 
|--------------------|---------------------| 
|--------------------|---------------------| 
|--------------------|---------------------| 
|--------------------|---------------------| 
|--------------------|---------------------| 
|-(10)---------------|-7------8-(8)---10---| 
| 
|   E  E E E E E E E   E  E E E  E  E  E E 
|--------------------|---------------------| 
|--------------------|---------------------| 
|--------------------|---------------------| 
|--------------------|-5--5-5-5--5--5--5-5-| 
|---2--2-2-2-2-2-2-2-|-3--3-3-3--3--3--3-3-| 
|---0--0-0-0-0-0-0-0-|---------------------| 
 
 
   +H        H         Q.     E +Q     Q 
|--------------------|---------------------| 
|--------------------|---------------------| 
|--------------------|---------------------| 
|--------------------|---------------------| 
|--------------------|---------------------| 
|-(10)---------------|-7------8-(8)---10---| 
| 
|   E  E E E E E E E   E  E E E  E  E  E E 
|--------------------|---------------------| 
|--------------------|---------------------| 
|--------------------|---------------------| 
|---5--5-5-5-5-5-5-5-|---------------------| 
|---3--3-3-3-3-3-3-3-|-5--5-5-5--5--5--5-5-| 
|--------------------|-3--3-3-3--3--3--3-3-| 
 
 
   +H        H        W              H       E  E E E   W 
|-------------------|--------------|------------------|--------------| 
|-------------------|--------------|------------------|--------------| 
|-------------------|--------------|------------------|--------------| 
|-------------------|--------------|------------------|--------------| 
|-------------------|--------------|------------------|--------------| 
|-(10)--------------|--------------|---------8--7-5-3-|--------------| 
| 
|   E  E E E E E Q    Q  Q  Q.   E   E E Q  +H          Q  Q  Q.   E 
|-------------------|-------3------|------------------|-------3------| 
|-------------------|----5--3----3-|------------------|----5--3------| 
|--------------2-2--|----4--0----2-|---5-5--(5)-------|----4--0----5-| 
|------------5-0-0--|----2-------0-|---5-5--(5)-------|----2-------5-| 
|---5--5-5-5-3------|--------------|---3-3--(3)-------|------------3-| 
|---3--3-3-3--------|-0------------|------------------|-0------------| 
 
 
  H       E  E E E   W              H       E  E E E   W 
|------------------|--------------|------------------|--------------| 
|------------------|--------------|------------------|--------------| 
|------------------|--------------|------------------|--------------| 
|------------------|--------------|------------------|--------------| 
|------------0-3-2-|--------------|---------3--2-0---|--------------| 
|------------------|--------------|----------------3-|--------------| 
| 
| E E Q  +H          Q  Q  Q.   E   E E Q  +H          Q  Q  Q.   E 
|------------------|-------3------|------------------|-------3------| 
|---3-3--(3)-------|----5--3----3-|------------------|----5--3----3-| 
|---2-2--(2)-------|----4--0----2-|---5-5--(5)-------|----4--0----2-| 
|---0-0--(0)-------|----2-------0-|---5-5--(5)-------|----2-------0-| 
|------------------|--------------|---3-3--(3)-------|--------------| 
|------------------|-0------------|------------------|-0------------| 
 
 
  Gtr II          Gtr I 
  E E Q  +H       E E E E  E E E E   E E  E  E  +H       E E E E  E E E E 
|---------------|-------3----------|-------------------|-------3----------| 
|---------------|-----3----8-7-----|-------------------|-----3----8-7-----| 
|---2-2--(2)----|--------------7---|-------------------|--------------7---| 
|---2-2--(2)----|---5------------7-|------9-10-(10)----|---5------------7-| 
|---0-0--(0)----|------------------|---7-10-12-(12)----|------------------| 
|---------------|-3-------10-------|-5-----------------|-3-------10-------| 
 
 
  E E E E +H       E E E E  E E E E   E E  E  E  +E  E +Q     E E E E  E E E E 
|----------------|-------3----------|-----------------------|-------3----------| 
|----------------|-----3----8-7-----|----------------8-(8)--|-----3----8-7-----| 
|-----5-4-(4)----|--------------7---|-----------------------|--------------7---| 
|----------------|---5------------7-|------9-10-(10)--------|---5------------7-| 
|---7------------|------------------|---7-10-12-(12)--------|------------------| 
|-5--------------|-3-------10-------|-5---------------------|-3-------10-------| 
 
 
                   Gtr II 
  E E E E +H       H           E.  S +S  E. 
|----------------|--------------------------| 
|----------------|-------------3------------| 
|-----5-4-(4)----|-------------2---5-(5)-4--| 
|----------------|-2-----------0---5-(5)-4--| 
|---7------------|-2---------------3-(3)-2--| 
|-5--------------|-0------------------------| 
| 
| Gtr III 
| W                E. S +S  E. E.  S  S  E. 
|----------------|-8--8-(8)-7--8---8--7--5--| 
|----------------|----------------12--------| 
|----------------|--------------------------| 
|----------------|--------------------------| 
|----------------|--------------------------| 
|----------------|--------------------------| 
 
 
  W               H           Q.      E 
|---------------|-----------------------| 
|---------------|-------------3---------| 
|-5-------------|-------------2-------4-| 
|-5-------------|-2-----------0-------4-| 
|-3-------------|-2-------------------2-| 
|---------------|-0---------------------| 
| 
| E E Q  +H       E. S +S  E. Q    E  E 
|-5-5-3--(3)----|-8--8-(8)-7--8---14----| 
|---------------|--------------------15-| 
|---------------|-----------------------| 
|---------------|-----------------------| 
|---------------|-----------------------| 
|---------------|-----------------------| 
 
 
    E   E  Q   +H        H               E.  S +S   E. 
|---------------------|--------------------------------| 
|---------------------|------------------3-------------| 
|-------5--5---(5)----|------------------2---5-(5)--4--| 
|-------5--5---(5)----|--2---------------0---5-(5)--4--| 
|-------3--3---(3)----|--2-------------------3-(3)--2--| 
|---------------------|--0-----------------------------| 
| 
|  +E   E  Q   +H        E.  S  +S   E.  E.  S  S   E. 
|---------------------|--------------------------------| 
|-(15)-17-17--(17)----|--------------------------------| 
|---------------------|-17--17-(17)-16--17--17-16--14--| 
|---------------------|---------------------21---------| 
|---------------------|--------------------------------| 
|---------------------|--------------------------------| 
 
 
   W                   H               Q.      E 
|-------------------|----------------------------| 
|-------------------|------------------3---------| 
|--5----------------|------------------2-------4-| 
|--5----------------|--2---------------0-------4-| 
|--3----------------|--2-----------------------2-| 
|-------------------|--0-------------------------| 
| 
|  E  E  Q   +H        E.  S  +S   E.  Q    E  E 
|-------------------|----------------------14----| 
|-------------------|-13--13-(13)-12--13------15-| 
|-14-14-12--(12)----|----------------------------| 
|-------------------|----------------------------| 
|-------------------|----------------------------| 
|-------------------|----------------------------| 
 
 
    E   E  Q   +H       Q  Q  Q.   E   E E Q  +H          Q  Q  Q.   E 
|---------------------|-------3------|------------------|-------3------| 
|---------------------|----5--3----3-|------------------|----5--3------| 
|-------5--5---(5)----|----4--0----2-|---5-5--(5)-------|----4--0----5-| 
|-------5--5---(5)----|----2-------0-|---5-5--(5)-------|----2-------5-| 
|-------3--3---(3)----|--------------|---3-3--(3)-------|------------3-| 
|---------------------|-0------------|------------------|-0------------| 
| 
|                                      Gtr I 
|  +E   E  Q   +H       W              H       E  E E E   W 
|---------------------|--------------|------------------|--------------| 
|-(15)-17-17--(17)----|--------------|------------------|--------------| 
|---------------------|--------------|------------------|--------------| 
|---------------------|--------------|------------------|--------------| 
|---------------------|--------------|---------3--2-0---|--------------| 
|---------------------|--------------|----------------3-|--------------| 
 
 
  Gtr I 
  H       E  E E E   W              H       E  E E E   W 
|------------------|--------------|------------------|--------------| 
|------------------|--------------|------------------|--------------| 
|------------------|--------------|------------------|--------------| 
|------------------|--------------|------------------|--------------| 
|------------0-3-2-|--------------|---------3--2-0---|--------------| 
|------------------|--------------|----------------3-|--------------| 
| 
| Gtr II 
| E E Q  +H          Q  Q  Q.   E   E E Q  +H          Q  Q  Q.   E 
|------------------|-------3------|------------------|-------3------| 
|---3-3--(3)-------|----5--3----3-|------------------|----5--3------| 
|---2-2--(2)-------|----4--0----2-|---5-5--(5)-------|----4--0----5-| 
|---0-0--(0)-------|----2-------0-|---5-5--(5)-------|----2-------5-| 
|------------------|--------------|---3-3--(3)-------|------------3-| 
|------------------|-0------------|------------------|-0------------| 
 
 
  H       E  E E E   W              H       E  E E E   W 
|------------------|--------------|------------------|--------------| 
|------------------|--------------|------------------|--------------| 
|------------------|--------------|------------------|--------------| 
|------------------|--------------|------------------|--------------| 
|------------0-3-2-|--------------|---------3--2-0---|--------------| 
|------------------|--------------|----------------3-|--------------| 
| 
| E E Q  +H          Q  Q  Q.   E   E E Q  +H          Q  Q  Q.   E 
|------------------|-------3------|------------------|-------3------| 
|---3-3--(3)-------|----5--3----3-|------------------|----5--3------| 
|---2-2--(2)-------|----4--0----2-|---5-5--(5)-------|----4--0----5-| 
|---0-0--(0)-------|----2-------0-|---5-5--(5)-------|----2-------5-| 
|------------------|--------------|---3-3--(3)-------|------------3-| 
|------------------|-0------------|------------------|-0------------| 
 
 
  H       E  E E E   W              H       E  E E E   W 
|------------------|--------------|------------------|--------------| 
|------------------|--------------|------------------|--------------| 
|------------------|--------------|------------------|--------------| 
|------------------|--------------|------------------|--------------| 
|------------0-3-2-|--------------|---------3--2-0---|--------------| 
|------------------|--------------|----------------3-|--------------| 
| 
| E E Q  +H          Q  Q  Q.   E   E E Q  +H          Q  Q  Q.   E 
|------------------|-------3------|------------------|-------3------| 
|---3-3--(3)-------|----5--3----3-|------------------|----5--3----3-| 
|---2-2--(2)-------|----4--0----2-|---5-5--(5)-------|----4--0----2-| 
|---0-0--(0)-------|----2-------0-|---5-5--(5)-------|----2-------0-| 
|------------------|--------------|---3-3--(3)-------|--------------| 
|------------------|-0------------|------------------|-0------------| 
 
 
  Gtr II          Gtr I 
  E E Q  +H       E E E E  E E E E   E E  E  E  +H       E E E E  E E E E 
|---------------|-------3----------|-------------------|-------3----------| 
|---------------|-----3----8-7-----|-------------------|-----3----8-7-----| 
|---2-2--(2)----|--------------7---|-------------------|--------------7---| 
|---2-2--(2)----|---5------------7-|------9-10-(10)----|---5------------7-| 
|---0-0--(0)----|------------------|---7-10-12-(12)----|------------------| 
|---------------|-3-------10-------|-5-----------------|-3-------10-------| 
 
 
  E E E E +H       E E E E  E E E E   E E  E  E  +E  E +Q     E E E E  E E E E 
|----------------|-------3----------|-----------------------|-------3----------| 
|----------------|-----3----8-7-----|----------------8-(8)--|-----3----8-7-----| 
|-----5-4-(4)----|--------------7---|-----------------------|--------------7---| 
|----------------|---5------------7-|------9-10-(10)--------|---5------------7-| 
|---7------------|------------------|---7-10-12-(12)--------|------------------| 
|-5--------------|-3-------10-------|-5---------------------|-3-------10-------| 
 
 
  E E E E +H       +W 
|----------------|--------*| 
|----------------|--------*| 
|-----5-4-(4)----|-(4)----*| 
|----------------|--------*| 
|---7------------|--------*| 
|-5--------------|--------*| 
 
 
 
 

	  

Full key step upFull key step up
Half key step upHalf key step up
Half key step downHalf key step down
Full key step downFull key step down
auto scroll beats size up size down change color hide chords drawings
tab show chords e-chords YouTube Clip e-chords hide all tabs e-chords go to top tab

share with facebook

Search Paypal