Brody Dalle

Dressed In Dreams

Brody Dalle

tabs

by  ALEFFEDERICO

save to print version add songbook text version e-mail correct tuner
chordsukulelecavacokeyboardtabbassdrumsharmonicaflute Guitar Pro
close

there isn't a video lesson for this song

chords

Dressed In Dreams

	  		

Tuning: Standard 

VERSE- "Where is the sun.." all the way up to "..and there is one place left to run" 
e|---------------------------------------------------------------------------| 
B|---------------------------------------------------------------------------| 
G|---------------------------------------------------------------------------| 
D|--2-2-2-2-2--6-6-6-6-6--2-2-2-2-2--6-6-6-6-6-------------------------------| 
A|--2-2-2-2-2--4-4-4-4-4--2-2-2-2-2--4-4-4-4-4-------------------------------| 
E|---------------------------------------------------------------------------| 
Chorus x2- "Never let yourself give in..." 
e|---------------------------------------------------------------------------| 
B|---------------------------------------------------------------------------| 
G|---------------------------------------------------------------------------| 
D|----------------6-6-6--2-2-2----------------6-6-6--2-2-2-------------------| 
A|--7-7-7--4-4-4--4-4-4--2-2-2--7-7-7--4-4-4--4-4-4--2-2-2-------------------| 
E|--5-5-5--2-2-2----------------5-5-5--2-2-2---------------------------------| 

Repeat VERSE and Chorus 

BRIDGE 

e|---------------------------------------------------------------------------| 
B|---------------------------------------------------------------------------| 
G|---------------------------------------------------------------------------| 
D|--9-9-9-9-------6-6--9-9--13-13-13-----------------------------------------| 
A|--7-7-7-7--7-7--4-4--7-7--11-11-11-----------------------------------------| 
E|-----------5-5-------------------------------------------------------------| 

REPEAT Chorus x2- "Never let yourself give in..." 
e|---------------------------------------------------------------------------| 
B|---------------------------------------------------------------------------| 
G|---------------------------------------------------------------------------| 
D|----------------6-6-6--2-2-2----------------6-6-6--2-2-2-------------------| 
A|--7-7-7--4-4-4--4-4-4--2-2-2--7-7-7--4-4-4--4-4-4--2-2-2-------------------| 
E|--5-5-5--2-2-2----------------5-5-5--2-2-2---------------------------------| 

PLAY Chorus x2- for outro "I won't give up at all, I want the freedom to..." 
e|---------------------------------------------------------------------------| 
B|---------------------------------------------------------------------------| 
G|---------------------------------------------------------------------------| 
D|----------------6-6-6--2-2-2----------------6-6-6--2-2-2-------------------| 
A|--7-7-7--4-4-4--4-4-4--2-2-2--7-7-7--4-4-4--4-4-4--2-2-2---------7---------| 
E|--5-5-5--2-2-2----------------5-5-5--2-2-2---------------end on--5---------| 


Have Fun!! *_* 


************************************ 

| /   slide up 
| \   slide down 
| h   hammer-on 
| p   pull-off 
| ~   vibrato 
| +   harmonic 
| x   Mute note 
| b   Bend 
| pb  Pre-bend 
| br  Bend release 
| pbr Pre-bend release 
| brb Bend release bend 

************************************ 
		  

auto scroll beats size up size down change color hide chords drawings
tab show chords e-chords YouTube Clip e-chords hide all tabs e-chords go to top tab

share