Brian Jonestown Massacre

Thoughts Of You

Brian Jonestown Massacre

tabs

by  ANDRSOUZA

save to print version add songbook text version e-mail correct tuner
chordsukulelecavacokeyboardtabbassdrumsharmonicaflute Guitar Pro
close

there isn't a video lesson for this song

chords

Thoughts Of You

	  		

 




e|-----------------------------------------------------| 
B|------------------------------3--3--5-----2---2--3h2-| 
G|---------------------------4---4-------------2-2-----| 
D|-----------------------------------------------------| 
A|-----------------------------------------------------| 
E|-0--0--0--0--0--0--0--0--0--0--0--0--0--0--0--0--0---| 

e|---------------------------------------------------------------------------| 
B|---------------------------3---3----5--2---2--3h2--------------------------| 
G|---4---4----4--4---4----4-----4--4--------2-2---------4---4----4--4---4---4| 
D|------6--6--------6--6-----------------------------------6-6---------6-6---| 
A|---------------------------------------------------------------------------| 
E|-0--0--0--0--0--0--0--0--0--0--0--0--0--0--0--0--0--0--0--0--0--0--0--0--0-| 

e|---------------------------------------| 
B|---------------------------------------| 
G|---2---2----2--2---2----2--4---4----4--| 
D|------4--2--------4--4--------6-6------|  et cetera et cetera ...  
A|---------------------------------------| 
E|-0--0--0--0--0--0--0--0--0--0--0--0--0-|  
		  

See also:

tabs Ira! - Poço de Sensibilidade (Solo - Acustico Mtv) tabs Deep Purple - Smoke On The Water tabs Deep Purple - Smoke on the water (intro) tabs Ira! - Eu Quero Sempre Mais (Com Pitty, intro) tabs Deep Purple - Smoke on the Water (ver. 2) tabs Deep Purple - Knocking At Your Back Door
e-chords

Other versions:

tabs Brian Jonestown Massacre - Thoughts Of You
auto scroll beats size up size down change color hide chords drawings
tab show chords e-chords YouTube Clip e-chords hide all tabs e-chords go to top tab

share