Brett Eldredge

One Mississippi

Brett Eldredge

tabs

by  EDUCASTILHO

save to print version add songbook text version e-mail correct tuner
chordsukulelecavacokeyboardtabbassdrumsharmonicaflute Guitar Pro
close

there isn't a video lesson for this song

chords

One Mississippi

	  		 
 

Intro 
e|--------------------------------------------0------| 
B|--0--------0-----0--------0-----3-----1-0---1------| 
G|-----2---2---2------2---2---2-------0-----0-0------| 
D|--0----0-------0------0-------0---2---------2------| 
A|--0-----------------------------3-----3-3---3------| 
E|--3--------------2--------------------------0------| 

   -Chorus- 
e|----------------------------------------------------1-----------0----| 
B|--0--------0-----0--------0-----0-------0---------3---3---0-------0--| 
G|-----2---2---2------2---2---2-----2---2---0-------------0-----0------| 
D|--0----0-------0------0-------0-----0-----------0-----------2--------| 
A|--0-----------------------------2-------------2-----------3----------| 
E|--3--------------2--------------------------3------------------------| 

e|-------------------------------------2h3-----------------| 
B|-------4-----------0h1-0---------3-------3---------------| 
G|-----5---5-------0-------0-----2---2-------2-------------| 
D|---5-------5---0-----------0-0---------------------------| 
A|-3-------------------------------------------------------| 
E|-------------3-------------------------------------------| 

e|----------------------------------------------------1----------0-----| 
B|--0--------0-----0--------0-----0-------0---------3---3---0------0---| 
G|-----2---2---2------2---2---2-----2---2---0-------------0-----0------| 
D|--0----0-------0------0-------0-----0-----------0-----------2--------| 
A|--0-----------------------------2-------------2-----------3----------| 
E|--3--------------2--------------------------3------------------------| 


e|-------------------------------------2h3-----------0-----------------2h3-------------------------2h3------| 
B|-------4-----------0h1-0---------3-------2-----------0-----------3---------------0h1-0-------3-------3----| 
G|-----5---5-------0-------0-----2---2-------3-----0-----0-----------2-----------0-------0---2---2-------2--| 
D|---5-------5---0-----------0-0-----------------2-------------0-0---------0---0-----------0---------------0| 
A|-3-------------------------------------------3-----------0h2----------------------------------------------| 
E|-------------3-------------------------------------------------------------3------------------------------| 



  -VERSE- 
e|---------3---------------0---------------------------------------0-----------3----------| 
B|-----3-----3---------3-----3-------------3-----------3-------------3---4---4---4--------| 
G|-------0-----0---------2-----2---------0---0-------0---0-------0-----0-----------0------| 
D|---0-----------0---0-----------0-----0-------0---0-------0---0-----------5---------5----| 
A|-----------------------------------------------------------2-----------6----------------| 
E|-3---------------2---------------0-1-----------2----------------------------------------| 


e|-----------------------2h3--------| 
B|-------0h1-0-------3-------3------| 
G|-----0-------0---2---2-------2----| 
D|---0-----------0---------------0--| 
A|----------------------------------| 
E|-3--------------------------------| 


e|---------3---------------0---------------------------------------0---------------------| 
B|-----3-----3---------3-----3-------------3-----------3-------------3---------4---------| 
G|-------0-----0---------2-----2---------0---0-------0---0-------0-----0-----5---5-------| 
D|---0-----------0---0-----------0-----0-------0---0-------0---0-----------5-------5-----| 
A|-----------------------------------------------------------2-----------3-----------3---| 
E|-3---------------2---------------0-1-----------2---------------------------------------| 


e|-----------------------2h3--------| 
B|-------0h1-0-------3-------3------| 
G|-----0-------0---2---2-------2----| 
D|---0-----------0---------------0--| 
A|----------------------------------| 
E|-3--------------------------------| 

Lipstick on the coffee cup 
I know I should wash it up 
But maybe I'll just wait here for a little while 
I run my fingers around the top 
Where your lips were I just stop 
Cause I, I can almost see your smile 



   -Chorus-  
e|----------------------------------------------------1-----------0----| 
B|--0--------0-----0--------0-----0-------0---------3---3---0-------0--| 
G|-----2---2---2------2---2---2-----2---2---0-------------0-----0------| 
D|--0----0-------0------0-------0-----0-----------0-----------2--------| 
A|--0-----------------------------2-------------2-----------3----------| 
E|--3--------------2--------------------------3------------------------| 


e|-------------------------------------2h3-----------------| 
B|-------4-----------0h1-0---------3-------3---------------| 
G|-----5---5-------0-------0-----2---2-------2-------------| 
D|---5-------5---0-----------0-0---------------------------| 
A|-3-------------------------------------------------------| 
E|-------------3-------------------------------------------| 




and the pain    to     come 
e|----------------2--------2--| 
B|------------3-----3------3--| 
G|----------2---2-----2----2--| 
D|--------0-------------0--0--| 
A|----------------------------| 
E|----------------------------| 

  -Chorus- 
e|----------------------------------------------------1-----------0----| 
B|--0--------0-----0--------0-----0-------0---------3---3---0-------0--| 
G|-----2---2---2------2---2---2-----2---2---0-------------0-----0------| 
D|--0----0-------0------0-------0-----0-----------0-----------2--------| 
A|--0-----------------------------2-------------2-----------3----------| 
E|--3--------------2--------------------------3------------------------| 


e|-------------------------------------2h3-----------------| 
B|-------4-----------0h1-0---------3-------3---------------| 
G|-----5---5-------0-------0-----2---2-------2-------------| 
D|---5-------5---0-----------0-0---------------------------| 
A|-3-------------------------------------------------------| 
E|-------------3-------------------------------------------| 


e|----------------------------------------------------1----------0-----| 
B|--0--------0-----0--------0-----0-------0---------3---3---0------0---| 
G|-----2---2---2------2---2---2-----2---2---0-------------0-----0------| 
D|--0----0-------0------0-------0-----0-----------0-----------2--------| 
A|--0-----------------------------2-------------2-----------3----------| 
E|--3--------------2--------------------------3------------------------| 


e|-------------------------------------2h3-----------0-----------------2h3-------------------------2h3------| 
B|-------4-----------0h1-0---------3-------2-----------0-----------3---------------0h1-0-------3-------3----| 
G|-----5---5-------0-------0-----2---2-------3-----0-----0-----------2-----------0-------0---2---2-------2--| 
D|---5-------5---0-----------0-0-----------------2-------------0-0---------0---0-----------0---------------0| 
A|-3-------------------------------------------3-----------0h2----------------------------------------------| 
E|-------------3-------------------------------------------------------------3------------------------------| 

A

e|--------------------------------------------0------| 
B|--0--------0-----0--------0-----3-----1-0---1------| 
G|-----2---2---2------2---2---2-------0-----0-0------| 
D|--0----0-------0------0-------0---2---------2------| 
A|--0-----------------------------3-----3-3---3------| 
E|--3--------------2--------------------------0------| 



************************************ 

| /   slide up 
| \   slide down 
| h   hammer-on 
| p   pull-off 
| ~   vibrato 
| +   harmonic 
| x   Mute note 
| b   Bend 
| pb  Pre-bend 
| br  Bend release 
| pbr Pre-bend release 
| brb Bend release bend 

************************************ 
		  

See also:

tabs Simpsons - Theme tabs Hayseed Dixie - Walk This Way tabs Theme Songs - Mario Bros. tabs Big & Rich - Save A Horse Ride A Cowboy-correct tabs Jerry Reed - Eastbound And Down tabs Hank Williams Jr - Family Tradition
e-chords

Other versions:

tabs Brett Eldredge - One Mississippi
auto scroll beats size up size down change color hide chords drawings
tab show chords e-chords YouTube Clip e-chords hide all tabs e-chords go to top tab

share