Brandi Carlile

Hiding My Heart

Brandi Carlile

tabs

by  VSWORLD

save to print version add songbook text version e-mail correct tuner
chordsukulelecavacokeyboardtabbassdrumsharmonicaflute Guitar Pro
close

there isn't a video lesson for this song

chords

Hiding My Heart

	  		
Intro 
e|---------------------------------------------------------------------------| 
B|---------------1----------------------1-------------1------1---------------| 
G|------------0---------------------0----------------------------------------|    Repeat 3x 
D|---------2----------------2---3------------------3------3------------------| 
A|------3--------------------------------------------------------------------| 
E|---------------------------------------------------------------------------| 

e|---------------------------------------------------------------------------| 
B|---------------1----------------------1------------------------------------| 
G|------------0---------------------0----------------------------------------| 
D|---------2----------------2---3--------------------------------------------| 
A|------3--------------------------------------------------------------------| 
E|---------------------------------------------------------------------------| 


Verse 
e|--------------------0--------------------------1---------------------------| 
B|--------------------1--------------------------1---------------------------| 
G|--------------0-----------0-------------2--------------2-------------------| 
D|---------------------------------3-----------------------------------------|     
A|------3--------------------------------------------------------------------| 
E|---------------------------------------------------------------------------| 

e|---------------------------------------------------------------------------| 
B|--------------------1---------------------------0--------------------------| 
G|--------------------2-----2---------------------0--------------------------| 
D|--------------2--------------------------0-------------0-------------------| 
A|------0--------------------------2-----------------------------------------| 
E|---------------------------------------------------------------------------| 

e|--------------------1------------------------------------------------------| 
B|--------------------1--------------------------1---------------------------| 
G|--------------2-----------2--------------------0---------------------------| 
D|------3---------------------------------2--------------2-------------------|     
A|----------------------------------3----------------------------------------| 
E|---------------------------------------------------------------------------| 

e|--------------------1--------------------------3---------------------------| 
B|--------------------1--------------------------0---------------------------| 
G|--------------2-----------2----------------------------0-------------------| 
D|------3---------------------------------0----------------------------------|     
A|---------------------------------------------------------------------------| 
E|----------------------------------3----------------------------------------| 

e|---------------------------------------------------------------------------| 
B|--------------------1--------------------------0---------------------------| 
G|--------------------0--------------------------0---------------------------| 
D|--------------2-----------2--------------0------------0--------------------|     
A|------3---------------------------2----------------------------------------| 
E|---------------------------------------------------------------------------| 

e|---------------------------------------------------------------------------| 
B|--------------------1---------------------------0--------------------------| 
G|--------------------2-----2---------------------0--------------------------| 
D|--------------2--------------------------0-------------0-------------------| 
A|------0--------------------------2-----------------------------------------| 
E|---------------------------------------------------------------------------| 

e|--------------------1------------------------------------------------------| 
B|--------------------1--------------------------1---------------------------| 
G|--------------2-----------2--------------------0---------------------------| 
D|------3---------------------------------2--------------2-------------------|     
A|----------------------------------3----------------------------------------| 
E|---------------------------------------------------------------------------| 

e|--------------------1--------------------------3---------------------------| 
B|--------------------1--------------------------0---------------------------| 
G|--------------2-----------2----------------------------0-------------------| 
D|------3---------------------------------0----------------------------------|     
A|---------------------------------------------------------------------------| 
E|----------------------------------3----------------------------------------| 


Chorus 
e|--------------------1--------------------------3---------------------------| 
B|--------------------3--------------------------0---------------------------| 
G|--------------2------------2---------------------------0-------------------| 
D|------0----------------------------------0---------------------------------| 
A|---------------------------------------------------------------------------| 
E|----------------------------------3----------------------------------------| 

e|--------------------0--------------------------1---------------------------| 
B|--------------------1--------------------------1---------------------------| 
G|--------------0-----------0-------------2--------------2-------------------| 
D|---------------------------------3-----------------------------------------|     
A|------3--------------------------------------------------------------------| 
E|---------------------------------------------------------------------------| 

e|--------------------1--------------------------3---------------------------| 
B|--------------------3--------------------------0---------------------------| 
G|--------------2------------2---------------------------0-------------------| 
D|------0----------------------------------0---------------------------------| 
A|---------------------------------------------------------------------------| 
E|----------------------------------3----------------------------------------| 

e|--------------------0--------------------------0---------------------------| 
B|--------------------1--------------------------1---------------------------| 
G|--------------2------------2--------------2------------2-------------------| 
D|------2-------------------------------2------------------------------------| 
A|----------------------------------0----------------------------------------| 
E|---------------------------------------------------------------------------| 

e|--------------------1--------------------------3---------------------------| 
B|--------------------3--------------------------0---------------------------| 
G|--------------2------------2---------------------------0-------------------| 
D|------0----------------------------------0---------------------------------| 
A|---------------------------------------------------------------------------| 
E|----------------------------------3----------------------------------------| 

e|--------------------0--------------------------1---------------------------| 
B|--------------------1--------------------------1---------------------------| 
G|--------------0-----------0-------------2--------------2-------------------| 
D|---------------------------------3-----------------------------------------|     
A|------3--------------------------------------------------------------------| 
E|---------------------------------------------------------------------------| 

e|--------------------1--------------------------3---------------------------| 
B|--------------------3--------------------------0---------------------------| 
G|--------------2-----------2---------------------------0--------------------| 
D|------0---------------------------------0----------------------------------|     
A|---------------------------------------------------------------------------| 
E|----------------------------------3----------------------------------------| 


e|--------------------3----------------| 
B|--------------------0----------------| 
G|---------------------------0---------|               Repeat 3x 
D|--------------0----------------------|     
A|-------------------------------------| 
E|------3------------------------------| 


Outro 
e|---------------------0----------------------------------1------------------| 
B|---------------------1----------------------------------3------------------| 
G|---------------------------0-----------------2-------------------2---------| 
D|--------------0---------------------0--------------------------------------| 
A|------3--------------------------------------------------------------------| 
E|---------------------------------------------------------------------------| 

e|---------------------3--------------------------------3--------------------| 
B|---------------------0--------------------------------0--------------------| 
G|---------------------------0-------------------------------------0---------| 
D|--------------0------------------------------0-----------------------------| 
A|---------------------------------------------------------------------------| 
E|------3-----------------------------3--------------------------------------| 

e|---------------------------------------------------------------------------| 
B|---------------1----------------------1-------------1------1---------------| 
G|------------0---------------------0----------------------------------------|    Repeat 3x 
D|---------2----------------2---3------------------3------3------------------| 
A|------3--------------------------------------------------------------------| 
E|---------------------------------------------------------------------------| 

e|------0--------| 
B|------1--------| 
G|------0--------|   
D|------2--------| 
A|------3--------| 
E|---------------| 
		  

See also:

tabs Crosby, Stills, Nash & Young - Suite Judy Blue Eyes tabs John Denver - For You tabs Kansas - Carry On My Wayward Son tabs John Denver - Annies Song tabs Scott Joplin - The Entertainer tabs John Denver - Take Me Home, Country Roads
e-chords

Other versions:

tabs Brandi Carlile - Hiding My Heart
auto scroll beats size up size down change color hide chords drawings
tab show chords e-chords YouTube Clip e-chords hide all tabs e-chords go to top tab

share