Brad Paisley

The Old Rugged Cross (ver. 2)

Brad Paisley

tabs Advanced advanced

save to print version add songbook text version e-mail correct tuner
chordsukulelecavacokeyboardtabbassdrumsharmonicaflute Guitar Pro
close

there isn't a video lesson for this song

chords

The Old Rugged Cross (ver. 2)

	  		By axehappy - [email protected] 
 
A     =   x02220                           D     =   xx0232 
E     =   022100                           A7    =   x02020 
E7    =   020100 

 
A  D  E 
INTRO 
 
 
     A                       D 
On a hill far away, stood an old rugged cross, 
    E                       A    E 
The emblem of suffering and sin. 
      A                              D 
And I love that old cross, where the dearest and best, 
      E                         A 
For a world of lost sinners was slain. 
 
 
 
         E                      A 
And I'll cherish the old rugged cross, 
         D                      A 
Until my trophies at last I lay down. 
                    A7         D 
I will cling to the old rugged cross, 
      A              E7        A     E 
And exchange it some day for a crown. 
 
 
 
       A                        D 
To the old rugged cross, I will ever be true, 
    E                         A    E 
Its shame and reproach gladly bear. 
            A                       D 
And they'll call me some day, to my home far away, 
          E                  A 
Where his glory forever I'll share. 
 
 
 
         E                      A 
And I'll cherish the old rugged cross, 
         D                      A 
Until my trophies at last I lay down. 
                    A7         D 
I will cling to the old rugged cross, 
      A              E7        A     E 
And exchange it some day for a crown. 
       A            A7         D 
I will cling to the old rugged cross, 
      A              E7        D      A 
And exchange it some day for a crown. 
 

PICKING -------- 
 
INTRO 

 
   A            D    E 
 
E------0----------5---------| 
B--0h2--------2--3-3---0----| 
G-----------2---------2-1---| 
D-----2----2-2-/4-----------| 
A--0------0-----------------| 
E--------------------0------| 
 
 
VERSE 1 & 2 
 
 
   A         D          E         A        E        A           D 
E-----------------0h2--------------------------------------------------0h2--- 
B---2-1--2----3-2-3--3-----0---0------2p0--------0----2-1--2------3-2-----3-- 
G---2-1---2---2-1---------1---1-----2----2-1---2-1----2-1--2-2---2--1-2------ 
D-------2----0---0-------2---2-----2-2-----2p0-4-----2----2-----0----0------- 
A--0---0--------------------------0-----------------0----0------------------- 
E-----------------------0---0------------------------------------------------ 
 
 
   E         A          
E---------------------------- 
B----0---0-------3-0h2------- 
G-----1---1----2---2---4-2--- 
D---2---2-----2-2------6-4--- 
A------------0-----0--------- 
E--0---0---------------4-2--- 
 
 
CHORUS 
 
 
   E           A        D            A                    A7    D 
E------------------------------------------------------------------0-0h2----- 
B----0----0------3-2-------3-3-----------0--0h2-------2-2-2-3-2---3-3----3--- 
G------1----1--2-----2----2---2--------2--2-2---2-1---2---0------2------2-2-- 
D---2-2--2-2----2---2-2--0----0-------2-2------2-2---2-----2----0------------ 
A--------------0---0------------4-2--0------0-------0-----0------------------ 
E--0----0-------4------------------------------------------------------------ 
 
 
   A      E7    A       E 
E------------------------------- 
B------2-----0------0-------0--- 
G----2-----1-1----2--2--1-2-1--- 
D---2-2----0-----2-2--2-2-4----- 
A--0------------0--------------- 
E---------0-------------0------- 
 
 
2nd CHORUS 
 
 
   E           A         D           A                    A7    D 
E------------------------------------------------------------------0-0h2----- 
B----0----0------3-2-------3-3-----------0--0h2-------2-2-2-3-2---3-3----3--- 
G------1----1--2-----2----2---2--------2--2-2---2-1---2---0------2------2-2-- 
D---2-2--2-2----2---2-2--0----0-------2-2------2-2---2-----2----0------------ 
A--------------0---0------------4-2--0------0-------0-----0------------------ 
E--0----0-------4------------------------------------------------------------ 
 
 
   A      E7    A       E      A     A7    D             A      E          
E----------------------------------------------0-0h2------------------ 
B------2-----0------0-------0----2-2-2-3-2----3-3----3-------2-----0-- 
G----2-2---1-1----2--2--1-2-1----2---0---0---2------2-2----2-2---1-1-- 
D---2-2----0-----2-2--2-2-4-----2-----2-----0-------------2-2----0---- 
A--0------------0--------------0-----0-------------------0------------ 
E---------0-------------0---------------------------------------0----- 
 
 
   D                A 
E-----0-0h2-0-----------5---| 
B----3-3-----3--3------2----| 
G---2-----------------2-----| 
D--0----0--0---------2------| 
A----------------2--0-------| 
E---------------------------| 
		  

Full key step upFull key step up
Half key step upHalf key step up
Half key step downHalf key step down
Full key step downFull key step down
hide glossary

See also:

tabs Darrell Evans - Trading My Sorrows tabs Bloodgood - Out of the darkness tabs Planetshakers - Fall in this place tabs Jars of Clay - Flood (acoustic) tabs Hillsong - One way tabs Paul Wilbur - Adonai
e-chords

Other versions:

tabs Brad Paisley - The Old Rugged Cross tabs Misc Praise Songs - The Old Rugged Cross tabs Brad Paisley - The Old Rugged Cross (ver. 2)
auto scroll beats size up size down change color hide chords drawings
tab show chords e-chords YouTube Clip e-chords hide all tabs e-chords go to top tab

share