Box Car Racer

home > Box Car Racer

I Feel So Tab

Box Car Racer

Difficulty: AdvancedAdvanced

tuner correct add songbook print version text version save to e-mail
chordsukulelecavacokeyboardtabbassdrummharmonicsflute Guitar Pro
chords

I Feel So

  		Intro de guitarra (depois da intro de piano)
(Tocada também no início das estrofes):

e|--------------------------------
B|--------------------------------
G|-----4-----5------4-----2-------   (2x)
D|--5--5--4--4---2--2--4--4-------
A|--------------------------------
E|--------------------------------

(Música toda em Power Chords)

Primeiro entram só o baixo com a base e a bateria. 
A guitarra faz uns efeitos, como umas harmônicas, e no meio toca:

e|------------------------
B|--8-8-8-8-8-8-8-8-8-8---
G|--x-x-x-x-x-x-x-x-x-x---	(várias vezes)
D|--5-5-5-5-5-5-5-5-5-5---
A|------------------------
E|------------------------

Os efeitos continuam e fecha com um Pick Slide; entra o Riff 1: 

Riff 1 :

e|--------------------------------         |     2x , sendo que na
B|--------------------------------         |     segunda vez, não há
G|------------------------7-------   (3x)  |     passagem com slide
D|--5----5--5--5----5--5--7-------         |     de 7 / 9 .
A|--5----5--5--5----5--5--5-------         |        7 / 9
E|--0/3--3--3--0/3--3--0----------         |        5 / 7
					   |     Toca-se apenas o 
e|--------------------------------	   |     acorde 9 depois do   
B|--------------------------------   	   |            9
G|--------------------------------         |            7
D|--5----5--5--5----5--5--7-/-9---         | 	 último   5
A|--5----5--5--5----5--5--7-/-9---         |		  3
E|--0/3--3--3--0/3--3--3--5-/-7---	   |              3

Quando a voz entra, é acompanhada apenas pela guitarra,
que toca...
('Intro')

e|--------------------------------
B|--------------------------------
G|-----4-----5------4-----2-------   (2x)
D|--5--5--4--4---2--2--4--4-------
A|--------------------------------
E|--------------------------------

...até o verso: "I wish I could feel no pain".
Depois deste verso, entra o Riff 2, que acompanha
como uma base, mas não é constante.

Riff 2:

e|-------------------------	  |
B|-------------------------	  |     Palm Muting
G|-------------------------  (2x) |      (abafado)
D|--5-5--4-4---2-2--4-4----       |
A|--5-5--5-5---2-2--5-5----	  |
E|--3-3--2-2---0-0--2-2----       |

Sometimes
I wish I was brave
I wish I was stronger
I wish I could feel no pain
I wish I was young 
I wish I was shy
I wish I was honest
I wish I was you not I

Refrão:

e|----------------------------------------------  
B|----------------------------------------------
G|--9-9-9-9-9--8-8-8-8-8--6-6-6-6-6--8-8-8-8-8--  (2x)
D|--9-9-9-9-9--9-9-9-9-9--6-6-6-6-6--9-9-9-9-9--
A|--7-7-7-7-7--6-6-6-6-6--4-4-4-4-4--6-6-6-6-6--
E|----------------------------------------------

´Cause
I feel so mad
I feel so angry
I feel so callused
So lost, confused, again
I feel so cheap
So used, unfaithful
Let´s start over
Let´s start over


Depois do Refrão, toca-se o Riff 1, porém uma vez só,
com a transição direta de 5 para 7 .
			  5      7
			  3      5

Depois toca-se a Intro, acompanhando a voz, até
o verso: "...How people are". Então, toca-se o Riff 2,
acompanhando a outra estrofe, bem como na primeira parte
da música.

Toca-se pela segunda vez o Refrão.

Depois, toca-se um G em Power Chords e deixa soar,
                          D|-5-
			  A|-5-
			  E|-3-

enquanto o baixo faz a base. Novamente, faz-se
um Pick Slide e depois umas harmônicas. 
Na hora em que o baixo fizer:

G|-------------------
D|-------------------
A|----------------5--
E|--0/3-3--0/3-3-----

... a guitarra acompanha apenas quando for tocado
A|--5-- , (D), no baixo, tocando um D em Power Chords:

e|----------------        |
B|----------------        |        
G|--7-7-7-7-------   (4x) |    Palm Muting
D|--7-7-7-7-------        |     (abafado)
A|--5-5-5-5-------        |
E|----------------        |

Depois destas 4 vezes, faz-se outro Pick Slide, e
a guitarra começa a fazer o Riff 1, acompanhando a
base do baixo, mas, desta vez, com Palm Muting (abafado),
soltando apenas quando tocar o D. 
                            G|-7-
			    D|-7-
			    A|-5-

Depois, enquanto a bateria acompanha com uns rolos,
a guitarra faz:

e|--------------------
B|--------------------
G|--4-4-4-4-4-4-4-----
D|--x-x-x-x-x-x-x-----
A|--2-2-2-2-2-2-2-----
E|--------------------

Faz-se isso duas vezes curtas, com um breve break no fim.
Na terceira vez, toca-se da mesma forma, mas durante o dobro
do tempo.
Depois do terceiro break, toca-se novamente o Refrão, só que,
desta vez, 4 vezes.
No final, toca-se um E, seja D|-2- ou G|-9- , deixando soar.
 			     A|-2-    D|-9-
			     E|-0-    A|-7-

A Feel So

Sometimes
I wish I was brave
I wish I was stronger
I wish I could feel no pain
I wish I was young 
I wish I was shy
I wish I was honest
I wish I was you not I
´Cause
I feel so mad
I feel so angry
I feel so callused
So lost, confused, again
I feel so cheap
So used, unfaithful
Let´s start over
Let´s start over
Sometimes
I wish I was smart
I wish I made cures for 
How people are
I wish I had power
I wish I could lead
I wish I could change the world 
For you and me
´Cause
I feel so mad
I feel so angry
I feel so callused
So lost, confused, again
I feel so cheap
So used, unfaithful
Let´s start over
Let´s start over
´Cause
I feel so mad
I feel so angry
I feel so callused
So lost, confused, again
I feel so cheap
So used, unfaithful
Let´s start over
Let´s start over
I feel so mad
I feel so angry
I feel so callused
So lost, confused, again
I feel so cheap
So used, unfaithful
Let´s start over
Let´s start over

_______________________________________________________
Contribuição: João Paulo Borges([email protected])
	  

Search Paypal
auto scroll beats size up size down change color hide chords drawings
tab show chords e-chords YouTube Clip e-chords hide all tabs e-chords go to top tab