Box Car Racer

home > Box Car Racer

Cat Like Theif Tab

Box Car Racer

Difficulty: nolevelnolevel

tuner correct add songbook print version text version save to e-mail
chordsukulelecavacokeyboardtabbassdrummharmonicsflute Guitar Pro
chords

Cat Like Theif

  		Tabber: J Cruz


Riff A  Guitar 1 
1 -----------------------------------------------------|
2 -----------------------------------------------------|
3 -----------------------------------------------------|
4 ----7-----7-----7-----7-----7-----7-----7-----7------|
5 -00---000---044---444---455---555---555---555---5----|
6 -----------------------------------------------------|
Guitar 1 play the same thing for the rest of the song



Riff A  Guitar 2 
1 -------|
2 -10----|
3 --9----|
4 --7----|
5 -------|
6 -------|
Play this chord when  Guitar 1  play 7



Chorus  Guitar 2 
1 -------|
2 -------|
3 --9----|
4 --x----|
5 --7----|
6 -------|
Play this when the  Guitar 1  play the chorus.


Final Chorus  Guitar2 
1 --------------------------------------|
2 ----12-----12---9---9---9---9---------|
3 -99----999----9---9---9---9---9-------|
4 --------------------------------------|
5 --------------------------------------|
6 --------------------------------------|
Play this on the final chorus.

It's right?
mail: [email protected]
	  

Search Paypal
auto scroll beats size up size down change color hide chords drawings
tab show chords e-chords YouTube Clip e-chords hide all tabs e-chords go to top tab