save to print version add songbook text version e-mail correct tuner
chordsukulelecavacokeyboardtabbassdrumsharmonicaflute Guitar Pro
close

there isn't a video lesson for this song

chords

Red

Key:  Dm More
Red Key AmAm
Red Key A#mA#m
Red Key BmBm
Red Key CmCm(one step down)
Red Key C#mC#m(half step down)
Red Key DmDm(original key)
Red Key D#mD#m(half step up)
Red Key EmEm(one step up)
Red Key FmFm
Red Key F#mF#m
Red Key GmGm
Red Key G#mG#m
	  		Intro: 

Clean sound, with delay 

Dm 

e|---------4--5----------4--5----------4--5----------4--5-| 
B|-------5-------------5-------------5-------------5------| 
G|-7-------------7------------7------------7--------------| 
D|-----7-------------7-------------7-------------7--------| 
A|--------------------------------------------------------| 
E|--------------------------------------------------------| 


Verse: 

Guitar starts playing around 00:33 

  F  E  Dm  Am  C F 

|-----------8---10--| 
|--10---8-----------| 
|-------------------| 
|-------------------| 
|-------------------| 
|-------------------| 

PreChorus: 

  Gm 

|------8---10-------| 
|-10------------8---| 
|-------------------| 
|-------------------| 
|-------------------| 
|-------------------| 



Back to Verse: 


  F  E  Dm  Am  C F 

|-----------8---10--| 
|--10---8-----------| 
|-------------------| 
|-------------------| 
|-------------------| 
|-------------------| 


  F  E  Dm  Am  Bb F 

|-----------8---10--| 
|--10---8-----------| 
|-------------------| 
|-------------------| 
|-------------------| 
|-------------------| 



Chorus: 

When playing this part you can use the whammy bar, or just bend really fast. 

  Am   Bb   C   F 

|------8---10-------| 
|-10------------8---| 
|-------------------|x2 
|-------------------| 
|-------------------| 
|-------------------| 



Then comes the intro part again: 

Dm 

|---------4--5----------4--5-| 
|-------5-------------5------| 
|-7-------------7------------| 
|-----7-------------7--------| 
|----------------------------| 
|----------------------------| 



Verse: 

  F  E  Dm  Am  C F 

|-----------8---10--| 
|--10---8-----------| 
|-------------------| 
|-------------------| 
|-------------------| 
|-------------------| 


  F  E  Dm  Am  Bb F 

|-----------8---10--| 
|--10---8-----------| 
|-------------------| 
|-------------------| 
|-------------------| 
|-------------------| 


Chorus: 

  Am   Bb   C   F 

|------8---10-------| 
|-10------------8---| 
|-------------------|x4 
|-------------------| 
|-------------------| 
|-------------------| 


Bridge: 


Dm 

|---------4--5----------4-| 
|-------5-------------5---| 
|-7-------------7---------| 
|-----7-------------7-----| 
|-------------------------| 
|-------------------------| 

Then just play the barre Dm chord until the verse comes again. 


Verse again: 


  F  E  Dm  Am  Bb F 

|-----------8---10--| 
|--10---8-----------| 
|-------------------| 
|-------------------| 
|-------------------| 
|-------------------| 




Chorus again: 

  Am   Bb   C   F 

|------8---10-------| 
|-10------------8---| 
|-------------------|x4 
|-------------------| 
|-------------------| 
|-------------------| 



Outro: 

Dm 

|---------4--5----------4--5----------4--5----------4--5-| 
|-------5-------------5-------------5-------------5------| 
|-7-------------7------------7------------7--------------| 
|-----7-------------7-------------7-------------7--------| 
|--------------------------------------------------------| 
|--------------------------------------------------------| 

It's a pretty easy song to play, that's it. 
		  

Full key step upFull key step up
Half key step upHalf key step up
Half key step downHalf key step down
Full key step downFull key step down
auto scroll beats size up size down change color hide chords drawings
tab show chords e-chords YouTube Clip e-chords hide all tabs e-chords go to top tab

share