Born Without Bones

Cheap Fun

Born Without Bones

tabs

by  FERNSANTANA

save to print version add songbook text version e-mail correct tuner
chordsukulelecavacokeyboardtabbassdrumsharmonicaflute Guitar Pro
close

there isn't a video lesson for this song

chords

Cheap Fun

	  		

Intro - Fingerpicked 

e|---3-----3---2-----2---0-----0---2----2---||--------------------------------| 
B|-----0---------0---------0---------0------||-3-----3------------------------| 
G|-------0---0-----0---0-----0---0-----0--0-||-2h4---2h4/2/0---REPEAT 4 TIMES-| 
D|------------------------------------------||--------------------------------| 
A|------------------------------------------||-3---3--------------------------| 
E|---3--------------------------------------||--------------------------------| 

verse 1 

e|---3------3------2-----2---0-----0------2-----2------||-------------------------------| 
B|------0------------0---------0------------0----------||-3-----3---3-------------------| 
G|--------0----0-------0---0-----0----0-------0---0----||-2h4---2h4/2/0--REPEAT 4 TIMES-| 
D|-----------------------------------------------------||-------------------------------| 
A|-----------------------------------------------------||-3---3-------------------------| 
E|---3-------------------------------------------------||-------------------------------| 

My song caught your ear   and your dress caught my eye 

e|---3------3------5-----5---2-----2-----3-------------||-------------------------------| 
B|------0------------0---------0--------------3--------||-3-----3---3-------------------| 
G|--------0----0-------0---0-----0----0-----0----0-----||-2h4---2h4/2/0--REPEAT 4 TIMES-| 
D|-----------------------------------------------------||-------------------------------| 
A|-----------------------------------------------------||-3---3-------------------------| 
E|---3-------------------------------------------------||-------------------------------| 

Your name's on the tip of my tongue but I'm afraid you've caught me at a bad time 

e|---------------0--000---0--000------------0--000------2-------------------------------| 
B|---------------1--111---1--111------------1--111------3-------------------------------| 
G|---------------2--222---2--222------------0--000------2-------------------------------| 
D|---------------2--222---2--222------------2--222------0-------------------------------| 
A|--------------00--000--00--000-----------33--333--------------------------------------| 
E|--------------------------------------------------------------------------------------| 

Cause what you do         wont let me see you    when i want to 

Repeat Intro 

verse 2 

e|-----------------------------------------------| 
B|12-12-12-12-12-12-12-12-10-10-10-10-10-10-10-10| 
G|12-12-12-12-12-12-12-12-11-11-11-11-11-11-11-11| 
D|-----------------------------------------------| 
A|10-10-10-10-10-10-10-10-10-10-10-10-10-10-10-10| 
E|-----------------------------------------------| 

I don't share what i love    with anyone           

e|-----------------------------------------------||------------------------------| 
B|8--8--8--8--8--8--8--8--10-10-10-10-10-10-10-10||-3-----3---3------------------| 
G|9--9--9--9--9--9--9--9--11-11-11-11-11-11-11-11||-2h4---2h4/2/0-REPEAT 4 TIMES-| 
D|-----------------------------------------------||------------------------------| 
A|10-10-10-10-10-10-10-10-10-10-10-10-10-10-10-10||-3---3------------------------| 
E|-----------------------------------------------||------------------------------| 

so you might be the type that i  should    not      endure 
  
Repeat verse 2 

PT4/Chorus 

e|---------------0--000---0--000------------0--000-------2--222--3--333---2--222---------| 
B|---------------1--111---1--111------------1--111-------3--333--0--000---0--000---------| 
G|---------------2--222---2--222------------0--000-------2--222--0--000---2--222---------| 
D|---------------2--222---2--222------------2--222------00--000--0--000---1--111---------| 
A|--------------00--000--00--000-----------33--333-----------------------22--222---------| 
E|--------------------------------------------------------------33--333------------------| 

cause what you do        wont let me love you the way i want toooooooooohoo and what i... 

e|-0--000---0--000----2--222--33-2-222---------| 
B|-1--111---1--111----3--333--33-3-333---------| 
G|-0--000---0--000----2--222--22-2-222---------| 
D|-2--222---2--222---00--000--00-0-000---------| 
A|33--333--33--333-----------------------------| 
E|---------------------------------------------| 
  
do  only lets me see you when I dont want to 

verse 3 

e|---3-----3---2-----2---0-----0---2----2---||--------------------------------| 
B|-----0---------0---------0---------0------||-3-----3------------------------| 
G|-------0---0-----0---0-----0---0-----0--0-||-2h4---2h4/2/0---REPEAT 4 TIMES-| 
D|------------------------------------------||--------------------------------| 
A|------------------------------------------||-3---3--------------------------| 
E|---3--------------------------------------||--------------------------------| 

My song caught your ear and your dress was cut too high 

e|---3-----3---5-----5---2-----2---3--------||--------------------------------| 
B|-----0---------0---------0-----------3----||-3-----3------------------------| 
G|-------0---0-----0---0-----0---0---0---0--||-2h4---2h4/2/0---REPEAT 4 TIMES-| 
D|------------------------------------------||--------------------------------| 
A|------------------------------------------||-3---3--------------------------| 
E|---3--------------------------------------||--------------------------------| 

Your lips on the tip of my tongue... 

Chorus 2 

e|---------------0--000---0--000------------0--000-------2--222--3--333---2--222---------| 
B|---------------1--111---1--111------------1--111-------3--333--0--000---0--000---------| 
G|---------------2--222---2--222------------0--000-------2--222--0--000---2--222---------| 
D|---------------2--222---2--222------------2--222------00--000--0--000---1--111---------| 
A|--------------00--000--00--000-----------33--333-----------------------22--222---------| 
E|--------------------------------------------------------------33--333------------------| 

cause what you do        wont let me love you the way i want toooooooooohoo and what i... 

e|-0--000---0--000---0--000--2--| 
B|-1--111---1--111---1--111--3--| 
G|-0--000---0--000---0--000--2--| 
D|-2--222---2--222---2--222--0--| 
A|33--333--33--333--33--333-----| 
E|----------------- ------------| 
  
do  only lets me see you when I dont want to 

The solo section is Am-C-D 2X 

Bridge 

e|---3-----3---2-----2---0-----0---2----2---||--------------------------------| 
B|-----0---------0---------0---------0------||-3-----3------------------------| 
G|-------0---0-----0---0-----0---0-----0--0-||-2h4---2h4/2/0---REPEAT 4 TIMES-| 
D|------------------------------------------||--------------------------------| 
A|------------------------------------------||-3---3--------------------------| 
E|---3--------------------------------------||--------------------------------| 

e|---3-----3---2-----2---0-----0---2----2---||--------------------------------| 
B|-----0---------0---------0---------0------||-3-----3------------------------| 
G|-------0---0-----0---0-----0---0-----0--0-||-2h4---2h4/2/0---REPEAT 4 TIMES-| 
D|------------------------------------------||--------------------------------| 
A|------------------------------------------||-3---3--------------------------| 
E|---3--------------------------------------||--------------------------------| 

You define life as rounds of free drinks, 40 oz friends... 

e|-X-X-X-X-X-X-X-X-X-X-X-X-X-X-X-X-X-X-X-X-X-X-||--------------------------------| 
B|-X-X-X-X-X-X-X-X-X-X-X-X-X-X-X-X-X-X-X-X-X-X-||-3-----3------------------------| 
G|-X-X-X-X-X-X-X-X-X-X-X-X-X-X-X-X-X-X-X-X-X-X-||-2h4---2h4/2/0---REPEAT 4 TIMES-| 
D|-X-X-X-X-X-X-X-X-X-X-X-X-X-X-X-X-X-X-X-X-X-X-||--------------------------------| 
A|-X-X-X-X-X-X-X-X-X-X-X-X-X-X-X-X-X-X-X-X-X-X-||-3---3--------------------------| 
E|-X-X-X-X-X-X-X-X-X-X-X-X-X-X-X-X-X-X-X-X_X-X-||--------------------------------| 

And I define death as your every waking breath... 

Repeat Chorus 

End riff 

e|---3-----3---5-----5---7-----7---10---10---||-----------------------|-------------| 
B|-----0---------0---------0----------0------||-3-----3---------------|-------+7----| 
G|-------0---0-----0---0-----0---0-----0--0--||-2h4---2h4/2/0---REPEAT|-----+5------| 
D|-------------------------------------------||----------------4 TIMES|---+5--------| 
A|-------------------------------------------||-3---3-----------------|--5----------| 
E|---3---------------------------------------||-----------------------|-----------3-| 


************************************ 

| /   slide up 
| \   slide down 
| h   hammer-on 
| p   pull-off 
| ~   vibrato 
| +   harmonic 
| x   Mute note 
| b   Bend 
| pb  Pre-bend 
| br  Bend release 
| pbr Pre-bend release 
| brb Bend release bend 

************************************ 
		  

Full key step upFull key step up
Half key step upHalf key step up
Half key step downHalf key step down
Full key step downFull key step down
hide glossary

See also:

tabs Deep Purple - Burn tabs Deep Purple - Lazy tabs Deep Purple - Deep Purple - Smoke On The Water tabs Deep Purple - Stormbringer tabs Deep Purple - Demon's Eye tabs Albert Hammond Jr - Holiday
e-chords

Other versions:

tabs Born Without Bones - Cheap Fun
auto scroll beats size up size down change color hide chords drawings
tab show chords e-chords YouTube Clip e-chords hide all tabs e-chords go to top tab

share