Booker T and the MGs

Time Is Tight

Booker T and the MGs

tabs Intermediate intermediate

by  ANDRSOUZA

save to print version add songbook text version e-mail correct tuner
chordsukulelecavacokeyboardtabbassdrumsharmonicaflute Guitar Pro
close

there isn't a video lesson for this song

chords

Time Is Tight

	  		 



e|--------------------------------------------| 
B|--------------------------------------------| 
G|--------------------------------------------| 
D|--------------------------------------------| 5x 
A|--3--3-0-3-0---3---0---3---0---0------------| 
E|-------------3-------3-------3--------------| 



e|--------------------------------------------| 
B|--------------------------------------------| 
G|--------------------------------------------| 
D|--3--3-0-3-0---3---0---3---0---0------------| 2x 
A|-------------3-------3-------3--------------| 
E|--------------------------------------------| 


e|--------------------------------------------| 
B|--------------------------------------------| 
G|--------------------------------------------| 
D|--------------------------------------------| 2x 
A|--3--3-0-3-0---3---0---3---0---0------------| 
E|-------------3-------3-------3--------------| 

Now the first three Riffs again, and then 


e|-----3---------3---------3---------3--------| 
B|-----3----7----3---------3----7----3--------| 
G|-----4----7----4---------4----7----4--------| 
D|-----5----7----5---------5----7----5--------| 
A|--------------------------------------------| 
E|--------------------------------------------| 

Now the first three Riffs one time again and then  
play the Solo. 


Solo: 




The next two riffs play two times 



e|---------------------------------------------| 
B|-------8--10------8--10-----8--10------------| 
G|-----9----------9---------9------------------| 
D|--10-----------------------------------------| 
A|---------------------------------------------|  
E|---------------------------------------------|   
                                                    
e|---------------------------------------------| 
B|------8--10--------------8--10--8------------| 
G|----9------------------9----------9----------| 
D|--------------------10--------------10-------| 
A|---------------------------------------------| 
E|---------------------------------------------| 



Then go on 

e|---------------------------------------------| 
B|--------13--15------------13--15-------------| 
G|----14----------------14---------------------| 
D|-15------------------------------------------| 
A|---------------------------------------------| 
E|---------------------------------------------| 


e|---------------------------------------------| 
B|-----13--15---------------13--15-------------| 
G|-14-------------------14---------------------| 
D|---------------------------------------------| 
A|---------------------------------------------| 
E|---------------------------------------------| 


e|---------------------------------------------| 
B|---------13--15---13-------------------------| 
G|-----14---------------14---------------------| 
D|-15-----------------------15-----------------| 
A|---------------------------------------------| 
E|---------------------------------------------| 


e|---------------------------------------------| 
B|-------8--10------8--10-----8--10------------| 
G|-----9----------9---------9------------------| 
D|--10-----------------------------------------| 
A|---------------------------------------------|  
E|---------------------------------------------|   

e|---------------------------------------------| 
B|------8--10------------8--10--8--------------| 
G|----9----------------9----------9------------| 
D|------------------10--------------10---------| 
A|---------------------------------------------| 
E|---------------------------------------------| 

End of Solo 



e|-----3---------3---------3---------3--------| 
B|-----3----7----3---------3----7----3--------| 
G|-----4----7----4---------4----7----4--------| 
D|-----5----7----5---------5----7----5--------| 
A|--------------------------------------------| 
E|--------------------------------------------| 




e|--------------------------------------------| 
B|--------------------------------------------| 
G|--------------------------------------------| 
D|--------------------------------------------| 3x 
A|--3--3-0-3-0---3---0---3---0---0------------| 
E|-------------3-------3-------3-------------- 

e|--------------------------------------------| 
B|--------------------------------------------| 
G|--------------------------------------------| 
D|--3--3-0-3-0---3---0---3---0---0------------| 2x 
A|-------------3-------3-------3--------------| 
E|--------------------------------------------| 




e|--------------------------------------------| 
B|--------------------------------------------| 
G|--------------------------------------------| 
D|--------------------------------------------| 5x 
A|--3--3-0-3-0---3---0---3---0---0------------| 
E|-------------3-------3-------3--------------| 



e|---------------------------------------------| 
B|-------8--10------8--10-----8--10------------| 
G|-----9----------9---------9------------------| 
D|--10-----------------------------------------| 
A|---------------------------------------------|  
E|---------------------------------------------|   
 
e|---------------------------------------------| 
B|------8--10--------------8--10--8------------| 
G|----9------------------9----------9----------| 
D|--------------------10--------------10-------| 
A|---------------------------------------------| 
E|---------------------------------------------| 



e|---------------------------------------------| 
B|-------8--10------8--10-----8--10------------| 
G|-----9----------9---------9------------------| 
D|--10-----------------------------------------| 
A|---------------------------------------------|  
E|---------------------------------------------|   

e|---------------------------------------------| 
B|------8--10--------------8--10--8------------| 
G|----9------------------9----------9----------| 
D|--------------------10--------------10-------| 
A|---------------------------------------------| 
E|---------------------------------------------| 


e|---------------------------------------------| 
B|-------8--10------8--10-----8--10------------| 
G|-----9----------9---------9------------------| 
D|--10-----------------------------------------| 
A|---------------------------------------------|  
E|---------------------------------------------|   

e|---------------------------------------------| 
B|------8--10--------------8--10--8------------| 
G|----9------------------9----------9----------| 
D|--------------------10--------------10-------| 
A|---------------------------------------------| 
E|---------------------------------------------|  
		  

See also:

tabs Blue Oyster Cult - Dont Fear The Reaper tabs Guns N' Roses - Nightrain tabs Guns N' Roses - You Could Be Mine tabs Guns N' Roses - November Rain (Ver. Acoustic) tabs Guns N' Roses - Civil War tabs Guns N' Roses - Don't Cry
e-chords

Other versions:

tabs Booker T and the MGs - Time Is Tight
auto scroll beats size up size down change color hide chords drawings
tab show chords e-chords YouTube Clip e-chords hide all tabs e-chords go to top tab

share