Bonnie Tyler

It's a Heartache Tab

Bonnie Tyler

Difficulty: BeginnerBeginner

by atual2007

tuner correct add songbook print version text version save to e-mail
chordsukuleleukulelecavacokeyboardtabbassdrumsharmonicsflute Guitar Pro
close

there isn't a video lesson for this song

chords

It's a Heartache

Year: 1991 - Album: Live

  		Bonnie tyler itīs a heartache ( solo) 

Trilha 1 
                                                          
E||--------------------------|-----------------------| 
B||--15b-15b----------13-----|--13----15----17-------| 
G||--------------17----------|-----------------------| 
D||--------------------------|-----------------------| 
A||--------------------------|-----------------------| 
E||--------------------------|-----------------------| 

                                                       
-13-14b--15----15b13-----17b----------------------10-| 
----------------------18----------17p15h17-15h17-----| 
--------------------------|--------------------------| 
--------------------------|--------------------------| 
--------------------------|--------------------------| 
--------------------------|--------------------------| 


                                    



	  

auto scroll beats size up size down change color hide chords drawings
tab show chords e-chords YouTube Clip e-chords hide all tabs e-chords go to top tab

share with facebook

Search Paypal