Bonde da Stronda

home > Bonde da Stronda

Minha Namorada Tab

Bonde da Stronda

Difficulty: nolevelnolevel

by runk

tuner correct add songbook print version text version save to e-mail
chordsukulelecavacokeyboardtabbassdrumsharmonicsflute Guitar Pro
chords

Minha Namorada

  		 
		 
 
E|-5-----5-3-------3-----3--------------- 
B|---6-3-----5-5-5---5-2---6------------- 
G|--------------------------------------- 
D|--------------------------------------- 
A|--------------------------------------- 
E|--------------------------------------- 




E|---5-----5-3--------3-----3------------ 
B|-6---6--------------------------------- 
G|-------7------5-5-5---5-2---6---------- 
D|--------------------------------------- 
A|--------------------------------------- 
E|--------------------------------------- 
	  

Search Paypal
auto scroll beats size up size down change color hide chords drawings
tab show chords e-chords YouTube Clip e-chords hide all tabs e-chords go to top tab