Bon Jovi

home > Bon Jovi

You give love a bad name (solo) Tab

Bon Jovi

Difficulty: ExpertExpert

by DiogoVR

tuner correct add songbook print version text version save to e-mail
chordsukulelecavacokeyboardtabbassdrumsharmonicsflute Guitar Pro
chords

You give love a bad name (solo)

  		 = Artificial harmonic (pick & thumb) 
Trm< = Tremelo down,  Trm^ = Back up. 
4~ = Vibrato 
11^ = Bend 
x = not played 
 
E|------------------------------------------------------------------| 
B|-  8 Trm< --------------------------------------------------------| 
G|----------Slide to 8 ~~~~   --5--7--8--10--12--15---17 17 ~~ -----| 
D|------------------------------x--x--x---x---x---x----x--x---------| 
A|------------------------------3--5--6---8--10--13---15-15 ~~ -----| 
E|------------------------------------------------------------------| 
                              
 
E|------------------------------------------------------------------| 
B|------------------------------------------------------------------| 
G|---12 t15p 12  t15p  12-------------------------------------- ----| 
D|--------------------------------------(Repete 3x)-----------------| 
A|------------------------------------------------------------------| 
E|------------------------------------------------------------------| 
 
 
E|------------------------------------------------------------------| 
B|------------------------------------------------------------------| 
G|---12 t15p 12  -15 ^~~~~------------------------------------------| 
D|------------------------------------------------------------------| 
A|------------------------------------------------------------------| 
E|------------------------------------------------------------------| 
  
 
E|------------------------------------------------------------------| 
B|------------------------------------------------------------------| 
G|-- 15^ --- 17 ^~~~~ ----------------------------- ----------------| 
D|------------------------------------------------------------------| 
A|------------------------------------------------------------------| 
E|------------------------------------------------------------------| 
 
 
E|------------------------------------------------------------------| 
B|------------------------------------------------------------------| 
G|------------------------------------------------------------------| 
D|--------------------------------------------3---------------------| 
A|- 3----------3--6--3-----3-----------3--6-----6-------------------| 
E|----6--3--6-----------6-----6--3--6--------------3 Trm < Trm^  ~~ | 
	  

Search Paypal
auto scroll beats size up size down change color hide chords drawings
tab show chords e-chords YouTube Clip e-chords hide all tabs e-chords go to top tab