Bon Jovi

home > Bon Jovi

You Give Love a Bad Name Tab

Bon Jovi

Difficulty: ExpertExpert

by DiogoVR

tuner correct add songbook print version text version save to e-mail
chordsukulelecavacokeyboardtabbassdrummharmonicsflute Guitar Pro
chords

You Give Love a Bad Name

Year: 1986 - Album: Cross Road

(Bon Jovi / Child / Sambora)

  		p - pull off 
h - hammer on 
tremelo vibrato, whack down on tremelo multiple times 
v - tremelo dive 
ps - pick slide - u will understand wen u hav heard the song 
\ slide down fretboard 
/slide up fretboard 
 
 
Intro  
------------------------------------------------------------------------------- 
------------------------------------------------------------------------------- 
------10-(12)-10--8-10-(12)-8----------10-(12)-10--8-10-(12)------------------- 
-------------------------------10-8-10------------------------10--------------- 
------------------------------------------------------------------------------- 
------------------------------------------------------------------------------- 
 
------------------------------------------------------------------------------- 
------------------------------------------------------------------------------- 
------10-(12)-10--8-10-(12)-8----------10-(12)--------------------------------- 
-------------------------------10-8-10----------------------------------------- 
------------------------------------------------------------------------------- 
------------------------------------------------------------------------------- 
 
Intro 2  
------------------------------------------------------------------------------- 
--------------------------------------------------4--4--4--4------------------- 
--------------------------------------------------3--3--3--3------------------- 
----------1-1-------------1-1------------1-1----------------------------------- 
--3---1-3-----3-1-3---1-3-----3~--3---1-3----3-1------------------------------- 
----3---------------3--------------3------------------------------------------- 
                                                     tremelo vibrato 
PreChorus 
------------------------------------------------------------------------------- 
---------------------4-4-4-4--------------------------------------------------- 
---------------------3-3-3-3--------------------------------------------------- 
--3-x-x-x-x-x-x-x-x-----------------3------5----------------------------------- 
--3-x-x-x-x-x-x-x-x-----------------3------5----------------------------------- 
--1-x-x-x-x-x-x-x-x-----------------1------3----------------------------------- 
                                                       
Chorus 
------------------------------------------------------------------------------- 
------------------------------------------------------------------------------- 
------------------------------------------------------------------------------- 
----10----6---8---10----------------------------------------------------------- 
----10----6---8---10----------------------------------------------------------- 
----8-----4---6---8------------------------------------------------------------ 
 
Solo 
 
------------------------------------------------------------------------------- 
-5v---4-----1-1-3-3-4-4-6-6-8-8-11-11-13--8h11ph(ps13)--8h11ph(ps13)----------- 
-5v-----5-5-------------------------------------------------------------------- 
------------------------------------------------------------------------------- 
------------------------------------------------------------------------------- 
------------------------------------------------------------------------------- 
 
------------------------------------------------------------------------------- 
---8h11ph(ps13)---8h11ph(ps13)---8h11ph(ps13)-11s13--13\4/15------------------- 
------------------------------------------------------------------------------- 
------------------------------------------------------------------------------- 
------------------------------------------------------------------------------- 
------------------------------------------------------------------------------- 
	  

Search Paypal
auto scroll beats size up size down change color hide chords drawings
tab show chords e-chords YouTube Clip e-chords hide all tabs e-chords go to top tab