Bon Jovi

home > Bon Jovi

Touch Of Grey Tab

Bon Jovi

Difficulty: nolevelnolevel

by edsooliveira

tuner correct add songbook print version text version save to e-mail
chordsukulelecavacokeyboardtabbassdrumsharmonicsflute Guitar Pro
chords

Touch Of Grey

  		
Intro 
e|---------------------|---------------------|-------------------------------| 
B|------3-------3------|------3-------3------|------3-------3----------------| 
G|----0---0---0---0----|----0---0---0---0----|----0---0---0---0--------------| 
D|--5-------5-------5--|--4-------4-------4--|--2-------2-------2------------| 
A|---------------------|---------------------|-------------------------------| 
E|---------------------|---------------------|-------------------------------| 
                                                                               
e|---------------------------------------------------------------------------| 
B|------3-------3------------------------------------------------------------| 
G|--------0-------0----------------------------------------------------------| 
D|----2-------2-----2--------------------------------------------------------| 
A|--3-------3----------------------------------------------------------------| 
E|---------------------------------------------------------------------------| 

Verse 
e|---------------------|---------------------|-------------------------------| 
B|------3-------3------|------3-------3------|------3-------3----------------| 
G|----0---0---0---0----|----0---0---0---0----|----0---0---0---0--------------| 
D|--5-------5-------5--|--4-------4-------4--|--2-------2-------2------------| 
A|---------------------|---------------------|-------------------------------| 
E|---------------------|---------------------|-------------------------------| 
                                                                              (2x) 
e|---------------------------------------------------------------------------| 
B|------1-------1------------------------------------------------------------| 
G|--------0-------0----------------------------------------------------------| 
D|----2-------2-----2--------------------------------------------------------| 
A|--3-------3----------------------------------------------------------------| 
E|---------------------------------------------------------------------------| 

Pre-Chorus 
e|---------------------|----------------------------------------------------| 
B|------1-------1------|------1-------1-------------------------------------| 
G|--------0-------0----|--------0-------0-----------------------------------| 
D|----2-------2-----2--|----2-------2-----2---------------------------------| 
A|--3-------3----------|--3-------3-----------------------------------------| 
E|---------------------|----------------------------------------------------| 

Chorus 
e|--0--0--0--0--|--2--2--2--2--|--0--0--0--0--|--0--0--0--0------------------| 
B|--3--3--3--3--|--3--3--3--3--|--0--0--0--0--|--1--1--1--1------------------| 
G|--0--0--0--0--|--2--2--2--2--|--0--0--0--0--|--0--0--0--0------------------| 
D|--0--0--0--0--|--0--0--0--0--|--2--2--2--2--|--2--2--2--2------------------| (2x) 
A|--2--2--2--2--|--------------|--2--2--2--2--|--3--3--3--3------------------| 
E|--3--3--3--3--|--------------|--0--0--0--0--|------------------------------| 

e|--0--0--0--0--|--0--0--0--0--|---------------------------------------------| 
B|--1--1--1--1--|--1--1--1--1--|------3-------3------------------------------| 
G|--2--2--2--2--|--0--0--0--0--|----0---0---0---0----------------------------| 
D|--2--2--2--2--|--2--2--2--2--|--5-------5-------5--------------------------| 
A|--0--0--0--0--|--3--3--3--3--|---------------------------------------------| 
E|--------------|--------------|---------------------------------------------| 

Verse 
e|---------------------|---------------------|-------------------------------| 
B|------3-------3------|------3-------3------|------3-------3----------------| 
G|----0---0---0---0----|----0---0---0---0----|----0---0---0---0--------------| 
D|--5-------5-------5--|--4-------4-------4--|--2-------2-------2------------| 
A|---------------------|---------------------|-------------------------------| 
E|---------------------|---------------------|-------------------------------| 
                                                                              (2x) 
e|---------------------------------------------------------------------------| 
B|------1-------1------------------------------------------------------------| 
G|--------0-------0----------------------------------------------------------| 
D|----2-------2-----2--------------------------------------------------------| 
A|--3-------3----------------------------------------------------------------| 
E|---------------------------------------------------------------------------| 

Pre-Chorus 
e|---------------------|----------------------------------------------------| 
B|------1-------1------|------1-------1-------------------------------------| 
G|--------0-------0----|--------0-------0-----------------------------------| 
D|----2-------2-----2--|----2-------2-----2---------------------------------| 
A|--3-------3----------|--3-------3-----------------------------------------| 
E|---------------------|----------------------------------------------------| 

Chorus 
e|--0--0--0--0--|--2--2--2--2--|--0--0--0--0--|--0--0--0--0------------------| 
B|--3--3--3--3--|--3--3--3--3--|--0--0--0--0--|--1--1--1--1------------------| 
G|--0--0--0--0--|--2--2--2--2--|--0--0--0--0--|--0--0--0--0------------------| 
D|--0--0--0--0--|--0--0--0--0--|--2--2--2--2--|--2--2--2--2------------------| (2x) 
A|--2--2--2--2--|--------------|--2--2--2--2--|--3--3--3--3------------------| 
E|--3--3--3--3--|--------------|--0--0--0--0--|------------------------------| 

e|--0--0--0--0--|--0--0--0--0--|---------------------------------------------| 
B|--1--1--1--1--|--1--1--1--1--|------3-------3------------------------------| 
G|--2--2--2--2--|--0--0--0--0--|----0---0---0---0----------------------------| 
D|--2--2--2--2--|--2--2--2--2--|--5-------5-------5--------------------------| 
A|--0--0--0--0--|--3--3--3--3--|---------------------------------------------| 
E|--------------|--------------|---------------------------------------------| 

Solo 
e|---------------------------------------------------------------------------| 
B|--5/13~--10\8~--5/7/8~--8/10~--10/12~--12~---------------------------------| 
G|---------------------------------------------------------------------------| 
D|---------------------------------------------------------------------------| 
A|---------------------------------------------------------------------------| 
E|---------------------------------------------------------------------------| 

e|---------------------------------------------------------------------------| 
B|--10\8\7~--8\5~--5/7~--7/8~--8/10/15~--15\12~------------------------------| 
G|---------------------------------------------------------------------------| 
D|---------------------------------------------------------------------------| 
A|---------------------------------------------------------------------------| 
E|---------------------------------------------------------------------------| 

Bridge 
e|--0--0--0--0--0--0-----|--0--0--0--0--0--0--|------------------------------| 
B|--3--3--1--1--0--0--0--|--3--3--1--1--0--0--|------------------------------| 
G|--------------------2--|--------------------|------------------------------| 
D|-----------------------|--------------------|------------------------------| 
A|-----------------------|--------------------|------------------------------| 
E|-----------------------|--------------------|------------------------------| 
                                                                              (3x) 
e|--0--0--0--0--0--0---------------------------------------------------------| 
B|--3--3--1--1--0--0--0------------------------------------------------------| 
G|--------------------2--0--2--4--2~--0--------------------------------------| 
D|---------------------------------------------------------------------------| 
A|---------------------------------------------------------------------------| 
E|---------------------------------------------------------------------------| 

Chorus 
e|--0--0--0--0--|--2--2--2--2--|--0--0--0--0--|--0--0--0--0------------------| 
B|--3--3--3--3--|--3--3--3--3--|--0--0--0--0--|--1--1--1--1------------------| 
G|--0--0--0--0--|--2--2--2--2--|--0--0--0--0--|--0--0--0--0------------------| 
D|--0--0--0--0--|--0--0--0--0--|--2--2--2--2--|--2--2--2--2------------------| (4x) 
A|--2--2--2--2--|--------------|--2--2--2--2--|--3--3--3--3------------------| 
E|--3--3--3--3--|--------------|--0--0--0--0--|------------------------------| 

Guitar nš2 
e|--0--0--0--0--0--0-----|--0--0--0--0--0--0--|------------------------------| 
B|--3--3--1--1--0--0--0--|--3--3--1--1--0--0--|------------------------------| 
G|--------------------2--|--------------------|------------------------------| 
D|-----------------------|--------------------|------------------------------| 
A|-----------------------|--------------------|------------------------------| 
E|-----------------------|--------------------|------------------------------| 
                                                                              (2x) 
e|--0--0--0--0--0--0---------------------------------------------------------| 
B|--3--3--1--1--0--0--0------------------------------------------------------| 
G|--------------------2--0--2--4--2~--0--------------------------------------| 
D|---------------------------------------------------------------------------| 
A|---------------------------------------------------------------------------| 
E|---------------------------------------------------------------------------| 

Bridge 
e|--0--0--0--0--|--2--2--2--2--|--0--0--0--0--|--0--0--0--0------------------| 
B|--3--3--3--3--|--3--3--3--3--|--0--0--0--0--|--1--1--1--1------------------| 
G|--0--0--0--0--|--2--2--2--2--|--0--0--0--0--|--0--0--0--0------------------| 
D|--0--0--0--0--|--0--0--0--0--|--2--2--2--2--|--2--2--2--2------------------| (2x) 
A|--2--2--2--2--|--------------|--2--2--2--2--|--3--3--3--3------------------| 
E|--3--3--3--3--|--------------|--0--0--0--0--|------------------------------| 

Guitar nš2 
e|--0--0--0--0--0--0-----|--0--0--0--0--0--0--|------------------------------| 
B|--3--3--1--1--0--0--0--|--3--3--1--1--0--0--|------------------------------| 
G|--------------------2--|--------------------|------------------------------| 
D|-----------------------|--------------------|------------------------------| 
A|-----------------------|--------------------|------------------------------| 
E|-----------------------|--------------------|------------------------------| 
                                                                              (2x) 
e|--0--0--0--0--0--0---------------------------------------------------------| 
B|--3--3--1--1--0--0--0------------------------------------------------------| 
G|--------------------2--0--2--4--2~--0--------------------------------------| 
D|---------------------------------------------------------------------------| 
A|---------------------------------------------------------------------------| 
E|---------------------------------------------------------------------------| 

Ending 
e|--0~-----------------------------------------------------------------------| 
B|--3~-----------------------------------------------------------------------| 
G|--0~-----------------------------------------------------------------------| 
D|--0~-----------------------------------------------------------------------| 
A|--2~-----------------------------------------------------------------------| 
E|--3~-----------------------------------------------------------------------| 

************************************ 

| /   Slide up 
| \   Slide down 

************************************ 
	  

Search Paypal
auto scroll beats size up size down change color hide chords drawings
tab show chords e-chords YouTube Clip e-chords hide all tabs e-chords go to top tab