Bon Jovi

home > Bon Jovi

This Ain't a Love Song Tab

Bon Jovi

Difficulty: BeginnerBeginner

by Jiraya

tuner correct add songbook print version text version save to e-mail
chordsukulelecavacokeyboardtabbassdrumsharmonicsflute Guitar Pro
chords

This Ain't a Love Song

  		Introduc„o: E2 B Bm A Am E B  
 
 
      E2              B    Bm              A             Am            E  
 
e|------------------------------------7------------------------------------|                   
B|----9----9----9-----7----7----7s9--------5---5---------5-----------------|                    
G|-----------------------------------------6------6------6---6---5--5--4---|                  
D|-----------------------------------------7---------7---7-----------------|                            
A|----7---------------6----5---------------0-------------0-----------------|      
E|-------------------------------------------------------------------------| 
 
 
 
                 B 
 
e|-------------------------------------------------------------------------|                   
B|-------------------------------------------------------------------------|                    
G|--4s6s4------------------------4---5s8-----------------------------------|                  
D|----------4s6s4--------4---6---------------------------------------------|                            
A|-------------------6-----------------------------------------------------|      
E|-------------------------------------------------------------------------| 
 
 
                          
 
 
                                                 
E2 
Should've seen it coming 
         B 
When the roses died 
Bm 
Should've seen the end 
          A 
Of summer in your eyes 
Am 
Should've listened when 
    E 
You said goodnight 
    B 
You really meant goodbye 
E2 
Any baby ain't it funny 
                 B 
How we never ever learn to fall 
Bm 
You're really on your knees 
A 
Think you're standing tall 
Am                 E 
But only fools are know-it-alls 
         B 
And I've played fool for you 
A                       C#m 
I cried and cried every night 
                    B 
Till I died for you baby 
A                      C#m 
I tried and I tried to deny it 
                   B 
Your love drove me crazy baby 
E                                    B 
If the love that I've got for you is gone 
C#m                                    A 
And if the river I've cried ain't that long 
E                       B 
Then I'm wrong yeah I'm wrong 
          A  
This ain't a love song 
E2 
Baby I thought you and me would 
B 
Stand the test of time 
Bm                        A 
Like we got away with the perfect crime 
Am                        E 
But we were just a legend in my mind 
 B 
I guess that I was blind 
E2 
Remember those nights dancing 
       B 
At the masquerade 
Bm 
The clowns wore smiles 
A 
That wouldn't fade 
Am                 E 
But you and I were the renegades 
    B 
And some things never change 
A                          C#m 
It made me so sad 'cause I wanted 
               B 
It band for us baby 
A                           C#m 
And now it's so sad that whatever we had 
            B 
Ain't worth saying oh oh oh 
       E                             B 
If the love that I've got for you is gone 
       C#m                             A 
And if the river I've cried ain't that long 
         E              B 
Then I'm wrong yeah I'm wrong 
          A 
This ain't a love song 
       E                        B 
If the pain that I'm feeling so strong 
       C#m             A 
Is the reason I'm holding on 
         E              B 
Then I'm wrong yeah I'm wrong 
          A 
This ain't a love song 
 
D A Bm G 
D A G      
  
A                         C#m 
I cried and I cried every night 
                    B 
Till I died for you baby 
A                      C#m 
I tried and I tried to deny it 
                   B 
Your love drove me crazy 
       E                             B 
If the love that I've got for you is gone 
       C#m                      A 
If the river I cried ain't that long 
        E               B 
Then I'm wrong yeah I'm wrong 
          A   
This ain't a love song 
         E              B 
Then I'm wrong yeah I'm wrong 
          A 
This ain't a love song 
  
Introduc„o 
 
 
                         FIM 
 
                                  by Alexander Muller 
 
	  

Full key step upFull key step up
Half key step upHalf key step up
Half key step downHalf key step down
Full key step downFull key step down
Search Paypal
auto scroll beats size up size down change color hide chords drawings
tab show chords e-chords YouTube Clip e-chords hide all tabs e-chords go to top tab