Bon Jovi

home > Bon Jovi

If Thats What It Takes Tab

Bon Jovi

Difficulty: nolevelnolevel

by tercmoraes

tuner correct add songbook print version text version save to e-mail
chordsukulelecavacokeyboardtabbassdrumsharmonicsflute Guitar Pro
chords

If Thats What It Takes

  		
Intro 

e|--5--5--5--5--|--6--6--6--6--|--5--5--5--5--|--6--6--6--6------------------| 
B|--6--6--6--6--|--6--6--6--6--|--6--6--6--6--|--6--6--6--6------------------| 
G|--5--5--5--5--|--5--5--5--5--|--5--5--5--5--|--5--5--5--5------------------| 
D|--------------|--------------|--------------|------------------------------| (2x) 
A|--------------|--------------|--------------|------------------------------| 
E|--------------|--------------|--------------|------------------------------| 

Guitar n 2: 
e|---------------------------------------------------------------------------| 
B|---------------------------------------------------------------------------| 
G|--x--x--10-10-10-10/12--12/14--14\12--12\5--5------------------------------| 
D|--x--x--x--x--x--x-/x---x-/x---x-\x---x-\x--x------------------------------| 
A|--x--x--8--8--8--8-/10--10/12--12\10--10\3--3------------------------------| 
E|---------------------------------------------------------------------------| 

e|---------------------------------------------------------------------------| 
B|---------------------------------------------------------------------------| 
G|--x--x--10-10-10-10/12--12/14--14\12--12\10--14----------------------------| 
D|--x--x--x--x--x--x-/x---x-/x---x-\x---x-\x---x-----------------------------| 
A|--x--x--8--8--8--8-/10--10/12--12\10--10\8---12----------------------------| 
E|---------------------------------------------------------------------------| 

e|---------------------------------------------------------------------------| 
B|---------------------------------------------------------------------------| 
G|--x--x--10-10-10-10/12--12/14--14\12--12\5--5------------------------------| 
D|--x--x--x--x--x--x-/x---x-/x---x-\x---x-\x--x------------------------------| 
A|--x--x--8--8--8--8-/10--10/12--12\10--10\3--3------------------------------| 
E|---------------------------------------------------------------------------| 


Verse 

e|--5~--|--------------------|------------------|-------------------|--------| 
B|--6~--|------5--------5----|------------------|------1---3---1----|--------| 
G|--5~--|--------5--------3--|----5h7--5h7p5h7--|----2---2---2---2--|--------| 
D|------|----5--------5------|----5h7--5h7p5h7--|--2----------------|--------| 
A|------|--3--------4--------|--5---------------|-------------------|--------| 
E|------|--------------------|------------------|-------------------|--------| 

e|------|-------------------|--1~--|-----------------------------------------| 
B|--3~--|----------2--------|--1~--|--5~-------------------------------------| 
G|--3~--|------3-------3----|--2~--|--5~-------------------------------------| 
D|--3~--|----3---3---3---3--|--3~--|--5~-------------------------------------| 
A|--1~--|--1----------------|--3~--|--3~-------------------------------------| 
E|------|-------------------|--1~--|-----------------------------------------| 

e|--5~--|--------------------|------------------|-------------------|--------| 
B|--6~--|------5--------5----|------------------|------1---3---1----|--------| 
G|--5~--|--------5--------3--|----5h7--5h7p5h7--|----2---2---2---2--|--------| 
D|------|----5--------5------|----5h7--5h7p5h7--|--2----------------|--------| 
A|------|--3--------4--------|--5---------------|-------------------|--------| 
E|------|--------------------|------------------|-------------------|--------| 

e|------|-------------------|------------|--------------------|--------------| 
B|--3~--|----------2--------|------------|--------------------|--------------| 
G|--3~--|------3-------3----|--5h7--5h7--|--5h7p5h7--5h7p5h7--|--------------| 
D|--3~--|----3---3---3---3--|--5h7--5h7--|--5h7p5h7--5h7p5h7--|--------------| 
A|--1~--|--1----------------|--5---------|--------------------|--------------| 
E|------|-------------------|------------|--------------------|--------------| 


Chorus 

e|-----------|-----------|--1-----|-----------|--1~--------------------------| 
B|--3--1--1--|--3--1--1--|--3--1--|--3--1--1--|--2~--------------------------| 
G|--3--0--2--|--3--0--2--|--2--0--|--3--0--2--|--3~--------------------------| 
D|--3--2--3--|--3--2--3--|--0--2--|--3--2--3--|--3~--------------------------| 
A|--1--3--3--|--1--3--3--|-----3--|--1--3--3--|--1~--------------------------| 
E|-----------|-----------|--------|-----------|------------------------------| 

Guitar n 2: 
e|---------------------------|-----------------------------------------------| 
B|---------------------------|-----------------------------------------------| 
G|--x--x--10/12/14--7--5-----|--x--x--10/12/14--7--9--10---------------------| 
D|--x--x--x-/x-/x---x--x--7--|--x--x--x-/x-/x---x--x--x----------------------| 
A|--x--x--8-/10/12--5--3--x--|--x--x--8-/10/12--5--7--8----------------------| 
E|------------------------5--|-----------------------------------------------| 

e|---------------------|-----|---------------------|-------------------------| 
B|---------------------|-----|---------------------|-------------------------| 
G|--x--x--10/12/14--7--|--5--|--x--x--10/12/14--7--|--x--x--10/12/14--7------| 
D|--x--x--x-/x-/x---x--|--x--|--x--x--x-/x-/x---x--|--x--x--x-/x-/x---x------| 
A|--x--x--8-/10/12--5--|--3--|--x--x--8-/10/12--5--|--x--x--8-/10/12--5------| 
E|---------------------|-----|---------------------|-------------------------| 

e|---------------------------------------------------------------------------| 
B|---------------------------------------------------------------------------| 
G|---------------------------------------------------------------------------| 
D|------3--5b6~--------------------------------------------------------------| 
A|--3/5----------------------------------------------------------------------| 
E|---------------------------------------------------------------------------| 


Verse 

e|--5~--|--------------------|------------------|-------------------|--------| 
B|--6~--|------5--------5----|------------------|------1---3---1----|--------| 
G|--5~--|--------5--------3--|----5h7--5h7p5h7--|----2---2---2---2--|--------| 
D|------|----5--------5------|----5h7--5h7p5h7--|--2----------------|--------| 
A|------|--3--------4--------|--5---------------|-------------------|--------| 
E|------|--------------------|------------------|-------------------|--------| 

e|-------------------|-------------------|--1~--|----------------------------| 
B|----------3--------|----------2--------|--1~--|--5~------------------------| 
G|------3-------3----|------3-------3----|--2~--|--5~------------------------| 
D|----3---3---3---3--|----3---3---3---3--|--3~--|--5~------------------------| 
A|--1----------------|--1----------------|--3~--|--3~------------------------| 
E|-------------------|-------------------|--1~--|----------------------------| 

e|--------------------|------------------|-------------------|---------------| 
B|------5--------5----|------------------|------1---3---1----|----------3----| 
G|--------5--------3--|----5h7--5h7p5h7--|----2---2---2---2--|------3--------| 
D|----5--------5------|----5h7--5h7p5h7--|--2----------------|----3---3---3--| 
A|--3--------4--------|--5---------------|-------------------|--1------------| 
E|--------------------|------------------|-------------------|---------------| 

e|-------|------------------|------------|--------------------|--------------| 
B|-------|---------2--------|------------|--------------------|--------------| 
G|--3----|------3------3----|--5h7--5h7--|--5h7p5h7--5h7p5h7--|--------------| 
D|----3--|----3---3--3---3--|--5h7--5h7--|--5h7p5h7--5h7p5h7--|--------------| 
A|-------|--1---------------|--5---------|--------------------|--------------| 
E|-------|------------------|------------|--------------------|--------------| 


Chorus 

e|-----------|-----------|--1-----|-----------|--1~--------------------------| 
B|--3--1--1--|--3--1--1--|--3--1--|--3--1--1--|--2~--------------------------| 
G|--3--0--2--|--3--0--2--|--2--0--|--3--0--2--|--3~--------------------------| 
D|--3--2--3--|--3--2--3--|--0--2--|--3--2--3--|--3~--------------------------| 
A|--1--3--3--|--1--3--3--|-----3--|--1--3--3--|--1~--------------------------| 
E|-----------|-----------|--------|-----------|------------------------------| 

Guitar n 2: 
e|---------------------------|-----------------------------------------------| 
B|---------------------------|-----------------------------------------------| 
G|--x--x--10/12/14--7--5-----|--x--x--10/12/14--7--9--10---------------------| 
D|--x--x--x-/x-/x---x--x--7--|--x--x--x-/x-/x---x--x--x----------------------| 
A|--x--x--8-/10/12--5--3--x--|--x--x--8-/10/12--5--7--8----------------------| 
E|------------------------5--|-----------------------------------------------| 

e|---------------------|-----|---------------------|-------------------------| 
B|---------------------|-----|---------------------|-------------------------| 
G|--x--x--10/12/14--7--|--5--|--x--x--10/12/14--7--|--x--x--10/12/14--7------| 
D|--x--x--x-/x-/x---x--|--x--|--x--x--x-/x-/x---x--|--x--x--x-/x-/x---x------| 
A|--x--x--8-/10/12--5--|--3--|--x--x--8-/10/12--5--|--x--x--8-/10/12--5------| 
E|---------------------|-----|---------------------|-------------------------| 


Solo 

e|----------------------|------------------------------|---------------------| 
B|----------------------|------------------------------|---------------------| 
G|----------------------|------------------------------|------5-5h7--7-------| 
D|----------------------|------------5-----------------|--5h7---5h7--7--5h7--| 
A|------------3--3h5p3~-|--3--3--5/7---7b8br7~--3--5~--|---------------------| 
E|--1--1--3/5-----------|------------------------------|---------------------| 

e|------------------------------|----6---5---3------------|----6---5---3-----| 
B|------------------------------|--3---3---3-----6--------|--3---3---3-------| 
G|------------------------------|--------------5---5--6~--|------------------| 
D|--5b7br5p3h5~--5b6--3--5--3---|-------------------------|------------------| 
A|----------------------------5-|-------------------------|------------------| 
E|------------------------------|-------------------------|------------------| 

e|---------------|-------------------------------------|---------------------| 
B|----6---6/10~--|-------------------13h15--13h15------|---------------------| 
G|--5---5--------|--12b14br12---------------------12~--|--12b14br12----------| 
D|---------------|------------12--14-------------------|------------14--12---| 
A|---------------|-------------------------------------|---------------------| 
E|---------------|-------------------------------------|---------------------| 

e|---------------------------------------------------------------------------| 
B|---------------------------------------------------------------------------| 
G|-----12--12b14br12---------------------------------------------------------| 
D|--14---------------10h12~--------------------------------------------------| 
A|---------------------------------------------------------------------------| 
E|---------------------------------------------------------------------------| 

Guitar n2 (Rhythm): 
e|--1--|--------|--1--|--------|-----|--1--|--1--|-----|---------------------| 
B|--1--|--5--5--|--3--|--1--3--|--3--|--2--|--1--|--5--|---------------------| 
G|--2--|--5--3--|--2--|--2--2--|--3--|--3--|--2--|--5--|---------------------| 
D|--3--|--5--5--|--0--|--2--2--|--3--|--3--|--3--|--5--|---------------------| 
A|--3--|--3--4--|-----|--0--0--|--1--|--1--|--3--|--3--|---------------------| 
E|--1--|--------|-----|--------|-----|-----|--1--|-----|---------------------| 


Bridge 
(No guitar) 


Chorus 

e|-----|-----------|-----------|--1-----|-----------|--1~--------------------| 
B|-----|--3--1--1--|--3--1--1--|--3--1--|--3--1--1--|--2~--------------------| 
G|--7--|--3--0--2--|--3--0--2--|--2--0--|--3--0--2--|--3~--------------------| 
D|--7--|--3--2--3--|--3--2--3--|--0--2--|--3--2--3--|--3~--------------------| 
A|--5--|--1--3--3--|--1--3--3--|-----3--|--1--3--3--|--1~--------------------| 
E|-----|-----------|-----------|--------|-----------|------------------------| 

Guitar n 2: 
e|---------------------------|-----------------------------------------------| 
B|---------------------------|-----------------------------------------------| 
G|--x--x--10/12/14--7--5-----|--x--x--10/12/14--7--9--10---------------------| 
D|--x--x--x-/x-/x---x--x--7--|--x--x--x-/x-/x---x--x--x----------------------| 
A|--x--x--8-/10/12--5--3--x--|--x--x--8-/10/12--5--7--8----------------------| 
E|------------------------5--|-----------------------------------------------| 

e|---------------------|-----|---------------------|-------------------------| 
B|---------------------|-----|---------------------|-------------------------| 
G|--x--x--10/12/14--7--|--5--|--x--x--10/12/14--7--|--x--x--10/12/14--7------| 
D|--x--x--x-/x-/x---x--|--x--|--x--x--x-/x-/x---x--|--x--x--x-/x-/x---x------| 
A|--x--x--8-/10/12--5--|--3--|--x--x--8-/10/12--5--|--x--x--8-/10/12--5------| 
E|---------------------|-----|---------------------|-------------------------| 


Ending 

e|--5--5--|--5--5--|--5--5--|--5--5--|-----------|-----------|--------1--1---| 
B|--6--6--|--6--6--|--6--6--|--6--6--|--3--1--1--|--3--1--1--|--3--1--3--3---| 
G|--5--5--|--5--5--|--5--5--|--5--5--|--3--0--2--|--3--0--2--|--3--0--2--2---| 
D|--------|--------|--------|--------|--3--2--3--|--3--2--3--|--3--2--0--0---| 
A|--------|--------|--------|--------|--1--3--3--|--1--3--3--|--1--3---------| 
E|--------|--------|--------|--------|-----------|-----------|---------------| 

e|--1--1--|--1--1--|--1--1--|-----------|-----------|--------1--1------------| 
B|--3--3--|--3--3--|--3--3--|--3--1--1--|--3--1--1--|--3--1--3--3------------| 
G|--2--2--|--2--2--|--2--2--|--3--0--2--|--3--0--2--|--3--0--2--2------------| 
D|--0--0--|--0--0--|--0--0--|--3--2--3--|--3--2--3--|--3--2--0--0------------| (3x) 
A|--------|--------|--------|--1--3--3--|--1--3--3--|--1--3------------------| 
E|--------|--------|--------|------------------------------------------------| 

Guitar n2: 
e|---------------------|--------|----------------------------|---------------| 
B|---------------------|--------|----------------------------|---------------| 
G|--x--x--10/12/14--7--|--5--7--|--x--x--10/12/14--7--9--10--|---------------| 
D|--x--x--x-/x-/x---x--|--x--x--|--x--x--x-/x-/x---x--x--x---|---------------| 
A|--x--x--8-/10/12--5--|--3--5--|--x--x--8-/10/12--5--7--8---|---------------| 
E|---------------------|--------|----------------------------|---------------| 

e|------------------------|--------------|-----------------------------------| 
B|------------------------|--------------|-----------------------------------| 
G|--x--x--10/12/14--7--5--|--7--7--7--7--|--7--7-----------------------------| 
D|--x--x--x-/x-/x---x--x--|--x--x--x--x--|--x--x-----------------------------| 
A|--x--x--8-/10/12--5--3--|--5--5--5--5--|--5--5-----------------------------| 
E|------------------------|--------------|-----------------------------------| 

e|---------------------------|-----------------------------------------------| 
B|---------------------------|-----------------------------------------------| 
G|--x--x--10/12/14--7--5-----|--x--x--10/12/14--7--9--10---------------------| 
D|--x--x--x-/x-/x---x--x--7--|--x--x--x-/x-/x---x--x--x----------------------| 
A|--x--x--8-/10/12--5--3--x--|--x--x--8-/10/12--5--7--8----------------------| 
E|------------------------5--|-----------------------------------------------| 
                                                                               (x3) 
e|------------------------|--------------|-----------------------------------| 
B|------------------------|--------------|-----------------------------------| 
G|--x--x--10/12/14--7--5--|--7--7--7--7--|--7--7-----------------------------| 
D|--x--x--x-/x-/x---x--x--|--x--x--x--x--|--x--x-----------------------------| 
A|--x--x--8-/10/12--5--3--|--5--5--5--5--|--5--5-----------------------------| 
E|------------------------|--------------|-----------------------------------| 

Guitar n3: 
e|--------10--10--10-------10--10--10-------10--10--10-------10--10--10------| 
B|--------10--10--10-------10--10--10-------10--10--10-------10--10--10------| 
G|--12b14------------12b14------------12b14------------12b14-----------------| 
D|---------------------------------------------------------------------------| 
A|---------------------------------------------------------------------------| 
E|---------------------------------------------------------------------------| 

e|--------10--10--10-------10--10--10----------------------------------------| 
B|--------10--10--10-------10--10--10----------------------------------------| 
G|--12b14------------12b14------------12b14br12--10----10--12--12b14br12-----| 
D|--------------------------------------------------12-------------------12~-| 
A|---------------------------------------------------------------------------| 
E|---------------------------------------------------------------------------| 

e|--|--|--|--------13-------13------------------------|--------10--10--10----| 
B|--|--|--|--------13-------13------------------------|--------10--10--10----| 
G|--|--|--|--12b14----12b14----12b14br12--------------|--12b14---------------| 
D|--|--|--|------------------------------12--10--12~--|----------------------| 
A|--|--|--|-------------------------------------------|----------------------| 
E|--|--|--|-------------------------------------------|----------------------| 

e|--------10--10--10-------10--10--10-------10--10--10-------10-------10-----| 
B|--------10--10--10-------10--10--10-------10--10--10-------10-------10-----| 
G|--12b14------------12b14------------12b14------------12b14----12b14--------| 
D|---------------------------------------------------------------------------| 
A|---------------------------------------------------------------------------| 
E|---------------------------------------------------------------------------| 

e|--------10-------10--------------------------------------------------------| 
B|--------10-------10--------------------------------------------------------| 
G|--12b14----12b14-------12--12b14br12----------------12--12b14br12----------| 
D|--------------------10---------------12--10--12--10---------------12~------| 
A|---------------------------------------------------------------------------| 
E|---------------------------------------------------------------------------| 

e|--15b17~--b17--b17br15--13------|--------13-------------|------------------| 
B|---------------------------15~--|--13b15----------------|------------------| 
G|--------------------------------|-----------10h12--10~--|--------10--12----| 
D|--------------------------------|-----------------------|--10h12-----------| 
A|--------------------------------|-----------------------|------------------| 
E|--------------------------------|-----------------------|------------------| 

e|----------------------------|----------------------------------------------| 
B|----------------------------|----------------------------------------------| 
G|--12b14br12--10----10~--9~--|------10--10--10-----------10--10--10---------| 
D|----------------12----------|--10--10--10--10-12--10h12-10--10--10-12------| 
A|----------------------------|-----------------12-------------------12------| 
E|----------------------------|----------------------------------------------| 

e|--------------10----------------------13--13--10--13--10--|--x--13--10-----| 
B|-----------------10-------------------13--13--10--13--10--|--x--13--10-----| 
G|--------12b14-------12b14br12--10--12---------------------|----------------| 
D|--10h12---------------------------------------------------|----------------| 
A|----------------------------------------------------------|----------------| 
E|----------------------------------------------------------|----------------| 

e|------------------------------------------|--------------------------------| 
B|------------------------------------------|--------10--10--10--13b15~------| 
G|--12--10--10--10----12b14br12----10~--9~--|--------10--10--10--------------| 
D|-----------------12-----------12----------|--10h12-------------------------| 
A|------------------------------------------|--------------------------------| 
E|------------------------------------------|--------------------------------| 


************************************ 

| x   Dead note 
| h   Hammer-on 
| p   Pull-off 
| b   Bend 
| br  Bend release 
| /   Slide up 
| \   Slide down 
| ~   Vibrato 

************************************ 
	  

Search Paypal
auto scroll beats size up size down change color hide chords drawings
tab show chords e-chords YouTube Clip e-chords hide all tabs e-chords go to top tab