Bon Jovi

home > Bon Jovi

Hook Me Up (Intro) Tab

Bon Jovi

Difficulty: BeginnerBeginner

by juanra

tuner correct add songbook print version text version save to e-mail
chordsukulelecavacokeyboardtabbassdrumsharmonicsflute Guitar Pro
chords

Hook Me Up (Intro)

  		----------------------------------------------------------- 
----------------------------------------------------------- 
----------------------------------------------------------- 
-0--0--0--0--0--0--0--0--0--2--0--0--0--0--0--0--0--0--0--2 
-0--0--0--0--0--0--0--0--0--2--0--0--0--0--0--0--0--0--0--2 
----------------------------------------------------------- 
 
 
----------------------------------------------------------- 
----------------------------------------------------------- 
----------------------------------------------------------- 
-0--0--0--0--0--2--2--2--2--2--5--5--5--5--5--5--5--5--5--5 
-0--0--0--0--0--2--2--2--2--2--3--3--3--3--3--5--5--5--5--5 
----------------------------------------------------------- 

	  

Search Paypal
auto scroll beats size up size down change color hide chords drawings
tab show chords e-chords YouTube Clip e-chords hide all tabs e-chords go to top tab